Oops, an error
Loading. Please wait.

Headfirst For Halos bass

version 3
version 3
3,290 views 18 this week
no commentswrite comment
1 2 3 4 5
1 last vote to show rating
add to favorites
×
Save as Personal and add changes to this tab that will be seen only by you. Learn more ›
×
You can save this tab as Personal to edit and correct it or add notes. All changes will be seen only by you. Learn more »
launch autoscroll
font size
0
reset
guitar tuner
edit
Autoscroll
slow
fast
+/-
esc
set tempo
stop
Author
Difficulty
intermediate
Intro
G|-------------------------------------------------------------------|
D|-------------------------------------------------------------------|
A|-5---------------------------------5-------------------------------|
E|--------0-------3--------3-------------------0--------3----------3-|

G|-------------------------------------------------------------------|
D|-------------------------------------------------------------------|
A|-5---------------------------------5---------7--------9---------10-|
E|--------0-------2--------3-----------------------------------------|


Verse (0:48) x5
G|-------------------------------------------------------|
D|------------------------------------5-4-2-0------------|
A|-5-5-5--555--4-4-4--444--2-2-2--222---------7-7-7--777-|
E|-------------------------------------------------------|

G|-----------------------------------|
D|------------------------7--5--7--5-|
A|-6-6-6--666--5-5-5--555------------|
E|-----------------------------------|


Chorus (1:31) x2
G|---------------------------------------------------------------|
D|---------------------------------------------------------------|
A|-5-5---5-4-4---4-2-2---2------------------5-5---5--------------|
E|--------------------------2-2---2-3-3---3----------0-0---0-5-5-|


Pre-Verse (1:49) Picked in quarter notes
G|----------------------------------------------------------|
D|--------------------------5-4-2-0-------------------------|
A|-5-5-5-5--4-4-4-4-2-2-2-2---------7-7-7-7-6-6-6-6-5-5-5-5-|
E|----------------------------------------------------------|

G|---------|
D|-7-5-7-5-|
A|---------|
E|---------|


Verse x2
G|--------------------------------------------------------|
D|------------------------------------5-4-2-0-------------|
A|-5-5-5--555--4-4-4--444--2-2-2--222---------7-7-7--777--|
E|--------------------------------------------------------|

G|------------------------------------|
D|------------------------7--5--7--5--|
A|-6-6-6--666--5-5-5--555-------------|
E|------------------------------------|


Chorus x2
G|----------------------------------------------------------------|
D|----------------------------------------------------------------|
A|-5-5---5-4-4---4-2-2---2------------------5-5---5---------------|
E|--------------------------2-2---2-3-3---3----------0-0---0-5-5--|


Post-Chorus (2:31)
G|-----------------------------------|
D|-----------------------------------|
A|-2-2-2-2-2-2-2-2-2-2-2-2-2-2-2-2-1-|
E|-----------------------------------|


Interlude (2:38)
G|------------------------------------------------------------|
D|------------------------------------5-4-2-0-----------------|
A|-5-5-5--555--4-4-4--444--2-2-2--222---------7--7--7---7-7-7-|
E|------------------------------------------------------------|

G|-------------------------------------------------------|
D|------------------------7-5-4-0------------------------|
A|-6-6-6--666--5-5-5--555---------5-5-5--555--4-4-4--444-|
E|-------------------------------------------------------|

G|-------------------------------------------------------|
D|------------5-4-2-0------------------------------------|
A|-2-2-2--222---------7-7-7--777--6-6-6--666--5-5-5--555-|
E|-------------------------------------------------------|

G|------------|
D|-7-5-7-5----|
A|---------5--|
E|------------|


Ending (3:00)
G|----------------------------------------------|
D|----------------------------------------------|
A|-55555555-44444444-22222222-44444444-55555555-|
E|----------------------------------------------|

G|----------------------------------------------|
D|----------------------------------------------|
A|-77777777-22222222-44444444-55555555-44444444-|
E|----------------------------------------------|

G|----------------------------------------------|
D|----------------------------------------------|
A|-22222222-44444444-55555555-77777777-22222222-|
E|----------------------------------------------|

G|----------------------------------------------|
D|----------------------------------------------|
A|-44444444-55555555-44444444-22222222-44444444-|
E|----------------------------------------------|

G|------------------------------------------------------|
D|------------------------------------------------------|
A|-55555555-77777777-99999999-10-10-10-10-10-10-10-10-5-|
E|------------------------------------------------------|
10s are played just as quickly as everything else they are only spaced to show that they 
10s and not 1-0
Suggest correction
Creating personal tab
Creating personal tab
You can edit any tab online and save it as your Personal.

You can edit, replace or remove any tab part or add personal notes – all changes will be seen only by you.

Personal tabs can be accessed anytime from any device, even offline.
Learn more »
Give kudos to tab author, rate the tab!
1 2 3 4 5
comments
print report bad tab
guest
You may want to rate the tab now too:
select rating
Wanna post a correction for this tab? Suggest correction