Oops, an error
Loading. Please wait.

Heaven Help Us bass

version 1
version 1

Whole song

Interactive

5,773 views 12 this week
1 commentread comment
1 2 3 4 5
x 6
add to favorites
×
Save as Personal and add changes to this tab that will be seen only by you. Learn more ›
×
You can save this tab as Personal to edit and correct it or add notes. All changes will be seen only by you. Learn more »
launch autoscroll
font size
0
reset
guitar tuner
edit
Autoscroll
slow
fast
+/-
esc
set tempo
stop
Author
My Chemical Romance – Heaven Help Us

Standard Tuning EADG

Intro (Guitar and vocals)

Verse 0.10
|-------------------------------------------------------------------------|
|-------------------------------------------------------------------------| X2
|-----------------------------------55555555------5555-33333333-----------|
|-5555555555555555-0000000000000000----------5555---------------3333-4444-|

Pre Chorus
|--------------|
|--------------|
|--------------|
|-55---55---55-|

Chorus
|----------------------------------------------------------------------|
|----------------------------------------------------------------------|
|-3333333333333333-----------------------------------------------------|
|------------------33333333-44444444-5555555555555555-1111111111111111-|

|----------------------------------------------------------------------|
|----------------------------------------------------------------------|
|-3333333333333333-----------------------------------------------------|
|------------------33333333-44444444-5555555555555555-1111111133333333-|

Verse
|-------------------------------------------------------------------------|
|-------------------------------------------------------------------------|
|-----------------------------------55555555------5555-33333333-----------|
|-5555555555555555-0000000000000000----------5555---------------3333-4444-|

|--------------------------------------------------------------------|
|--------------------------------------------------------------------|
|------------------------------55555555------5555-33333333-----------|
|-55-55-55-55-0000000000000000----------5555---------------3333-4444-|

Pre Chorus
|--------------|
|--------------|
|--------------|
|-55---55---55-|

Chorus
|----------------------------------------------------------------------|
|----------------------------------------------------------------------|
|-3333333333333333-----------------------------------------------------|
|------------------33333333-44444444-5555555555555555-1111111111111111-|

|----------------------------------------------------------------------|
|----------------------------------------------------------------------|
|-3333333333333333-----------------------------------------------------|
|------------------33333333-44444444-5555555555555555-1111111133333333-|

Bridge
|--------------------------------------------------------------------------------------|
|--------------------------------------------------------------------------------------|
|-3-------------------3----------------------------------------------------------------|
|----------------------------3------5------1------3------4---0-4-5---3---1---333333333-|

Chorus
|----------------------------------------------------------------------|
|----------------------------------------------------------------------|
|-3333333333333333-----------------------------------------------------|
|------------------33333333-44444444-5555555555555555-1111111111111111-|

|----------------------------------------------------------------------|
|----------------------------------------------------------------------|
|-3333333333333333-----------------------------------------------------|
|------------------33333333-44444444-5555555555555555-1111111133333333-|

|----------------------------------------------------------------------|
|----------------------------------------------------------------------|
|-3333333333333333-----------------------------------------------------|
|------------------33333333-44444444-5555555555555555-1111111111111111-|

|-------------------------------------------------------------------|
|-------------------------------------------------------------------|
|-3333333333333333--------------------------------------------------|
|------------------33333333-44444444-5555555555555555-1~-----3~-----|

End
|----------|
|----------|
|----------|
|-5~-----5-|

That’s what I think it goes like.
Please rate it and email me if you have any problems, adam.vaughan@hotmail.co.uk

Adam Vaughan

\ = Slide Down
~ = Let ring
Suggest correction
Creating personal tab
Creating personal tab
You can edit any tab online and save it as your Personal.

You can edit, replace or remove any tab part or add personal notes – all changes will be seen only by you.

Personal tabs can be accessed anytime from any device, even offline.
Learn more »
comments
print report bad tab
1 comment total.
0 reply
dvanwyk 4,676 Dec 22, 2007 02:26 AM

Good job man.I was going to tab it but you beat me to it.Well done. 5 stars

guest
You may want to rate the tab now too:
select rating
Wanna post a correction for this tab? Suggest correction