Oops, an error
Loading. Please wait.

Heaven Help Us tab

version 1
version 1

Whole song

Interactive

10,565 views 24 this week
13 commentsread comments
1 2 3 4 5
x 16
add to favorites
×
Save as Personal and add changes to this tab that will be seen only by you. Learn more ›
×
You can save this tab as Personal to edit and correct it or add notes. All changes will be seen only by you. Learn more »
launch autoscroll
font size
0
reset
how to read this tab
guitar tuner
edit
Autoscroll
slow
fast
+/-
esc
set tempo
stop
-----------------------------------------------------------------------------
           Heaven Help Us - My Chemical Romance
-----------------------------------------------------------------------------


Tabbed by: kiefermatot

Tuning: Standard


Alright.. this has taken  a lot of hard work to tab out. I'm not sure it is all 
perfect, but it is enough to get a great lead on.

Corrections and feedback would be great. Leave a comment or PM me if you have  any
or anything.


Thank you.


Intro: Palm Muted
e|-------------------------------------------------------------------------|
B|-----1--------1--------1--------1-------0------0-------0------0------0---|
G|---2---2----2---2----2---2----2---2---2---2---2--2----2--2---2--2---2--2-|
D|-------------------------------------------------------------------------|
A|-0--------0--------0--------0--------------------------------------------|
E|------------------------------------0--------0------0-------0-------0----|

e|------------------------------------------------------------------------|
B|-----3--------3--------3--------3--------1---------1-------1--------1---|
G|---2---2----2---2----2---2----2---2----2---2-----2---2----2--2-----2--2-|
D|------------------------------------------------------------------------|
A|-0--------0--------0--------0--------0---------0--------0--------0------|
E|------------------------------------------------------------------------|

Verse: Guitars 1 and 2
e|--------------------------------------------------------|
B|--------------------------------------------------------|
G|--22-5-2-22-5-2-22-5-2-22-5-----4------4------4------4--|
D|--22---2-22---2-22---2-22----22---2-22---2-22---2-22----|
A|--00---0-00---0-00---0-00----22---2-22---2-22---2-22----|
E|-----------------------------00---0-00---0-00---0-00----|
PM. ..   . ..   . ..   . ..    ..   . ..   . ..   . ..

e|--------------------------------------------------------|
B|--------------------------------------------------------|
G|--77-7-7-77-7-7-77-7-7-77-7--55-5-5-55-5-5-55-5-5-55-5--|
D|--77---7-77---7-77---7-77----55---5-55---5-55---5-55----|
A|--55---5-55---5-55---5-55----33---3-33---3-33---3-33----|
E|--------------------------------------------------------|
PM. ..   . ..   . ..   . ..    ..   . ..   . ..   . ..


Chorus: Guitar 1 and 2
e|-----------------------------------------------------------------|
B|-----------------------------------------------------------------|
G|-------------55555555--------------------------------------------|
D|-xx--xx-xx---55555555--5555-6666-77777777---3333333333333333-----|
A|-xx--xx-xx---33333333--5555-7777-77777777---3333333333333333-----|
E|-xx--xx-xx-------------3333-4444-55555555---1111111111111111-----|


One the second time guitar 2 plays this instead:

Guitar 2:
E|-------12-15-13-12-10-12-|          E|----10----12----15-12-10-|
B|----13-------------------|x3  then: B|-------------------------|
G|-12----------------------|          G|-12----12----12----------|
D|-------------------------|          D|-------------------------|
A|-------------------------|          A|-------------------------|
E|-------------------------|          E|-------------------------|


Verse: Guitars 1 and 2
e|--------------------------------------------------------|
B|--------------------------------------------------------|
G|--22-5-2-22-5-2-22-5-2-22-5-----4------4------4------4--|
D|--22---2-22---2-22---2-22----22---2-22---2-22---2-22----|
A|--00---0-00---0-00---0-00----22---2-22---2-22---2-22----|
E|-----------------------------00---0-00---0-00---0-00----|
PM. ..   . ..   . ..   . ..    ..   . ..   . ..   . ..

e|--------------------------------------------------------|
B|--------------------------------------------------------|
G|--77-7-7-77-7-7-77-7-7-77-7--55-5-5-55-5-5-55-5-5-55-5--|
D|--77---7-77---7-77---7-77----55---5-55---5-55---5-55----|
A|--55---5-55---5-55---5-55----33---3-33---3-33---3-33----|
E|--------------------------------------------------------|
PM. ..   . ..   . ..   . ..    ..   . ..   . ..   . ..


Not too sure about this first part.
e|-----------------------------------------------------------|
B|-----------------------------------------------------------|
G|--22-5*-2-22-5*-2-22-5*-2-22-5*----4------4------4------4--|
D|--22----2-22----2-22----2-22----22---2-22---2-22---2-22----|
A|--00----0-00----0-00----0-00----22---2-22---2-22---2-22----|
E|--------------------------------00---0-00---0-00---0-00----|
PM. ..    . ..    . ..    . ..    ..   . ..   . ..   . ..

e|--------------------------------------------------------|
B|--------------------------------------------------------|
G|--77-7-7-77-7-7-77-7-7-77-7--55-5-5-55-5-5-55-5-5-55-5--|
D|--77---7-77---7-77---7-77----55---5-55---5-55---5-55----|
A|--55---5-55---5-55---5-55----33---3-33---3-33---3-33----|
E|--------------------------------------------------------|
PM. ..   . ..   . ..   . ..    ..   . ..   . ..   . ..


Repeat Chorus. x1


Bridge:      With delay or reverb.
e|--------------------------------|
B|--8-8-8-8--6-6-6-6--------------|
G|--5-5-5-5--5-5-5-5--------------|
D|--------------------------------|
A|--------------------------------| x7
E|--------------------------------|

I'm pretty sure this is exact. If not, mess around with it.
e|---------------------------------------------------------|
B|---------------------------------------------------------|
G|---------------------------------------------------------|
D|---------------------------------------------------------|
A|---------------------------------------------------------|
E|-1~----3~----4~---1--3--5~---3~-----1~-----3~----5~------|


Final Chorus: Guitars 1 and 2
e|----------------------------------------------------|
B|----------------------------------------------------|
G|-55555555-------------------------------------------|
D|-55555555--5555-666-77777777---3333333333333333-----|
A|-33333333--5555-777-77777777---3333333333333333-----| x4
E|-----------3333-444-55555555---1111111111111111-----|

Outro: Guitar 1
e|------------------------|
B|------------------------|
G|------------------------|
D|-3--5--7----9~-10~-7~---|
A|-x--x--x----x~-x~--x~---|
E|-1--3--5----7~-8~--5~---|


Guitar 2:

Palm Muted
e|-------------------------------------|
B|-----1--------1--------1--------1----|
G|---2---2----2---2----2---2----2---2--|
D|-------------------------------------|
A|-0--------0--------0--------0--------|
E|-------------------------------------|

End on:
e|------|
B|------|
G|------|
D|--7\--|
A|--7\--|
E|--5\--|

| /  slide up
| \  slide down
| h  hammer-on
| p  pull-off
| ~  vibrato
| +  harmonic
| x  Mute note
============================================================================

            
            
Suggest correction
Creating personal tab
Creating personal tab
You can edit any tab online and save it as your Personal.

You can edit, replace or remove any tab part or add personal notes – all changes will be seen only by you.

Personal tabs can be accessed anytime from any device, even offline.
Learn more »
comments
print report bad tab
13 comments total. Showing first comments.
0 reply
f1f2 774 Oct 31, 2006 06:15 PM

where did u get this song???
nice tab

0 reply
kiefermatot 10,367 Nov 13, 2006 03:00 PM

Thanks.

I just downloaded it.. but it's on the Welcome to the Black Parade single.

I think it's only out in the UK though.

0 reply
celticteddy 10 Nov 21, 2006 10:39 PM

yes its only on the UK single nice TAB :)

guest
You may want to rate the tab now too:
select rating
Wanna post a correction for this tab? Suggest correction