Oops, an error
Loading. Please wait.

Helena tab

version 6
86,580 views 33 this week
6 commentsread comments
1 2 3 4 5
x 26
add to favorites
×
Save as Personal and add changes to this tab that will be seen only by you. Learn more ›
×
You can save this tab as Personal to edit and correct it or add notes. All changes will be seen only by you. Learn more »
launch autoscroll
font size
0
reset
how to read this tab
guitar tuner
backing track
0:00
0:00
edit
Autoscroll
slow
fast
+/-
esc
set tempo
stop
Author
Unregistered
[Intro]

Gtr I

e:|-----------------------------------------------------------------|
B:|-----------------------------------------------------------------|
G:|-----------------------------------------------------------------|
D:|-----------------------------------------------------------------|
A:|-----------------------------------------------------------------|
E:|-9-9-9-9-9-9-9-9-9-9-9-9-9-9-9-9-9-9-9-9-9-9-9-9-9-9-9-9-9-9-9-9-|
PM  * * * * * * * * * * * * * * * * * * * * * * * * * * * * * * * *

e:|-----------------------------------------------------------------|
B:|-----------------------------------------------------------------|
G:|-----------------------------------------------------------------|
D:|-----------------------------------------------------------------|
A:|-----------------------------------------------------------------|
E:|-0-0-0-0-0-0-0-0-0-0-0-0-0-0-0-0-7-7-7-7-7-7-7-7-4-4-4-4-4-4-4-4-|
PM  * * * * * * * * * * * * * * * * * * * * * * * * * * * * * * * *

e:|-----------------------------------------------------------------|
B:|-----------------------------------------------------------------|
G:|-----------------------------------------------------------------|
D:|-----------------------------------------------------------------|
A:|-----------------------------------------------------------------|
E:|-5-5-5-5-5-5-5-5-5-5-5-5-5-5-4-5-5-5-5-5-5-5-5-5-5-5-5-5-5-5-5-5-|
PM  * * * * * * * * * * * * * * * * * * * * * * * * * * * * * * * *

e:|-----------------------------------------------------------------|
B:|-----------------------------------------------------------------|
G:|-----------------------------------------------------------------|
D:|-----------------------------------------------------------------|
A:|-----------------------------------------------------------------|
E:|-9-9-9-9-9-9-9-9-9-9-9-9-9-9-9-9-7-7-7-7-7-7-7-7-7-7-7-7-0-0-0-0-|
PM  * * * * * * * * * * * * * * * * * * * * * * * * * * * * * * * *

Gtr II

e:|-------------------------------------------------------------------|
B:|-------------------------------------------------------------------|
G:|-------------------------------------------------------------------|
D:|-14141414141414141414141414141414-11111111111111111111111111111111-|
A:|-------------------------------------------------------------------|
E:|-------------------------------------------------------------------|
PM  * * * * * * * * * * * * * * * *  * * * * * * * * * * * * * * * *

e:|--------------------------------------------------------------------|
B:|--------------------------------------------------------------------|
G:|--------------------------------------------------------------------|
D:|-13131313131313131313131313131313-9-9-9-9-9-9-9-9-11111111-13131313-|
A:|--------------------------------------------------------------------|
E:|--------------------------------------------------------------------|
PM  * * * * * * * * * * * * * * * *  * * * * * * * * * * * *  * * * *

e:|-------------------------------------------------------------------|
B:|-------------------------------------------------------------------|
G:|-------------------------------------------------------------------|
D:|-14141414141414141414141414141414-11111111111111111111111111111111-|
A:|-------------------------------------------------------------------|
E:|-------------------------------------------------------------------|
PM   * * * * * * * * * * * * * * * *  * * * * * * * * * * * * * * * *

e:|-------------------------------------------------------------------|
B:|-------------------------------------------------------------------|
G:|-------------------------------------------------------------------|
D:|-9-9-9-9-9-9-9-9-1111111111111111-131313131313131313131313---------|
A:|-----------------------------------------------------------2-2-2-2-|
E:|-----------------------------------------------------------0-0-0-0-|
PM  * * * * * * * * * * * * * * * *  * * * * * * * * * * * *  * * * *


[Verse]

Gtr I

e:|-----------------------------------------------------------------|
B:|-----------------------------------------------------------------|
G:|-----------------------------------------------------------------|
D:|-6-6-6-6-6-6-6-6-6-6-6-6-6-6-6-6-6-6-6-6-6-6-6-6-6-6-6-6-6-6-6-6-|
A:|-4-4-4-4-4-4-4-4-4-4-4-4-4-4-4-4-4-4-4-4-4-4-4-4-4-4-4-4-4-4-4-4-|
E:|-----------------------------------------------------------------|

e:|-----------------------------------------------------------------|
B:|-----------------------------------------------------------------|
G:|-----------------------------------------------------------------|
D:|-----------------------------------------------------------------|
A:|-4-4-4-4-4-4-4-4-4-4-4-4-4-4-4-4-6-6-6-6-6-6-6-6-7-7-7-7-7-7-7-7-|
E:|-0-0-0-0-0-0-0-0-0-0-0-0-0-0-0-0-7-7-7-7-7-7-7-7-4-4-4-4-4-4-4-4-|

e:|-----------------------------------------------------------------|
B:|-----------------------------------------------------------------|
G:|-----------------------------------------------------------------|
D:|-----------------------------------------------------------------|
A:|-4-4-4-4-4-4-4-4-4-4-4-4-4-4-4-4-6-6-6-6-6-6-6-6-6-6-6-6-6-6-6-6-|
E:|-5-5-5-5-5-5-5-5-5-5-5-5-5-5-5-5-5-5-5-5-5-5-5-5-5-5-5-5-5-5-5-5-|

e:|-----------------------------------------------------------------|
B:|-----------------------------------------------------------------|
G:|-----------------------------------------------------------------|
D:|-----------------------------------------------------------------|
A:|-7-7-7-7-7-7-7-7-7-7-7-7-7-7-7-7-7-7-7-7-7-7-7-7-7-7-7-7---------|
E:|-9-9-9-9-9-9-9-9-9-9-9-9-9-9-9-9-7-7-7-7-7-7-7-7-7-7-7-7-0-0-0-0-|
PM                                                          * * * *

Gtr II

e:|-----------------------------------------------------------------|
B:|-----------------------------------------------------------------|
G:|-----------------------------------------------------------------|
D:|-111111111111111111111111111111111111111111111111111111111111111-|
A:|-111111111111111111111111111111111111111111111111111111111111111-|
E:|-9-9-9-9-9-9-9-9-9-9-9-9-9-9-9-9-9-9-9-9-9-9-9-9-9-9-9-9-9-9-9-9-|

e:|-----------------------------------------------------------------|
B:|-----------------------------------------------------------------|
G:|-----------------------------------------------------------------|
D:|-----------------------------------------------------------------|
A:|-7-7-7-7-7-7-7-7-9-9-9-9-9-9-9-9-9-9-9-9-9-9-9-9-6-6-6-6-6-6-6-6-|
E:|-0-0-0-0-0-0-0-0-0-0-0-0-0-0-0-0-7-7-7-7-7-7-7-7-4-4-4-4-4-4-4-4-|

e:|-----------------------------------------------------------------|
B:|-----------------------------------------------------------------|
G:|-----------------------------------------------------------------|
D:|-7-7-7-7-7-7-7-7-7-7-7-7-7-7-7/6/7-7-7-7-7-7-7-7-7-7-7-7-7-7-7-7-|
A:|-x-x-x-x-x-x-x-x-x-x-x-x-x-x-x-x-x-x-x-x-x-x-x-x-x-x-x-x-x-x-x-x-|
E:|-5-5-5-5-5-5-5-5-5-5-5-5-5-5-5/4/5-5-5-5-5-5-5-5-5-5-5-5-5-5-5-5-|

e:|-----------------------------------------------------------------|
B:|-----------------------------------------------------------------|
G:|-----------------------------------------------------------------|
D:|-----------------------------------------------------------------|
A:|-1111111111111111111111111111111-9-9-9-9-9-9-9-9-9-9-9-9-2-2-2-2-|
E:|-9-9-9-9-9-9-9-9-9-9-9-9-9-9-9-9-7-7-7-7-7-7-7-7-7-7-7-7-0-0-0-0-|
PM                                                          * * * *


[Pre-Chorus]

Gtr I

e:|-----------------------------------------------------------------|
B:|-----------------------------------------------------------------|
G:|-----------------------------------------------------------------|
D:|-----------------------------------------------------------------|
A:|-7-7-7-7-7-7-7-7-9-9-9-9-9-9-9-9-7-7-7-7-7-7-7-7-9-9-9-9-9-9-9-9-|
E:|-4-4-4-4-4-4-4-4-4-4-4-4-4-4-4-4-5-5-5-5-5-5-5-5-5-5-5-5-5-5-5-5-|

e:|--------------------------------------------------------------------|
B:|--------------------------------------------------------------------|
G:|--------------------------------------------------------------------|
D:|--------------------------------------------------------------------|
A:|-1111111111111111-1212121212121212-9-9-9-9-9-9-9-9-1111111111111111-|
E:|-9-9-9-9-9-9-9-9--9-9-9-9-9-9-9-9--7-7-7-7-7-7-7-7-7-7-7-7-7-7-7-7--|


e:|-----------------------------------------------------------------|
B:|-----------------------------------------------------------------|
G:|-----------------------------------------------------------------|
D:|-----------------------------------------------------------------|
A:|-7-7-7-7-7-7-7-7-9-9-9-9-9-9-9-9-7-7-7-7-7-7-7-7-9-9-9-9-9-9-9-9-|
E:|-4-4-4-4-4-4-4-4-4-4-4-4-4-4-4-4-5-5-5-5-5-5-5-5-5-5-5-5-5-5-5-5-|

e:|-------------------------------------------------------------------|
B:|-------------------------------------------------------------------|
G:|-------------------------------------------------------------------|
D:|-------------------------------------------------------------------|
A:|-1111111111111111-1212121212121212-9-9-9-9-9-9-9-9-9-9-9-9---------|
E:|-9-9-9-9-9-9-9-9--9-9-9-9-9-9-9-9--7-7-7-7-7-7-7-7-7-7-7-7-0-0-0-0-|
PM                                                            * * * *

Gtr II

e:|------------------------------------------------------------------|
B:|------------------------------------------------------------------|
G:|-9-9-9-9-9-9-9-9/1111111111111111-9-9-9-9-9-9-9-9/111111111111111-|
D:|-x-x-x-x-x-x-x-x-x-x-x-x-x-x-x-x--x-x-x-x-x-x-x-x-x-x-x-x-x-x-x-x-|
A:|-7-7-7-7-7-7-7-7/9-9-9-9-9-9-9-9--7-7-7-7-7-7-7-7/9-9-9-9-9-9-9-9-|
E:|------------------------------------------------------------------|

e:|---------------------------------------------------------------------|
B:|---------------------------------------------------------------------|
G:|-1313131313131313/1414141414141414-1313131313131313/1111111111111111-|
D:|--x-x-x-x-x-x-x-x--x-x-x-x-x-x-x-x--x-x-x-x-x-x-x-x--x-x-x-x-x-x-x-x-|
A:|-1111111111111111/1212121212121212-1111111111111111/-9-9-9-9-9-9-9-9-|
E:|---------------------------------------------------------------------|

e:|------------------------------------------------------------------|
B:|------------------------------------------------------------------|
G:|-9-9-9-9-9-9-9-9/1111111111111111-9-9-9-9-9-9-9-9/111111111111111-|
D:|-x-x-x-x-x-x-x-x-x-x-x-x-x-x-x-x--x-x-x-x-x-x-x-x-x-x-x-x-x-x-x-x-|
A:|-7-7-7-7-7-7-7-7/9-9-9-9-9-9-9-9--7-7-7-7-7-7-7-7/9-9-9-9-9-9-9-9-|
E:|------------------------------------------------------------------|

e:|--------------------------------------------------------------------|
B:|--------------------------------------------------------------------|
G:|-1313131313131313/1414141414141414-111111111111111111111111---------|
D:|-x-x-x-x-x-x-x-x--x-x-x-x-x-x-x-x--x-x-x-x-x-x-x-x-x-x-x-x----------|
A:|-1111111111111111/1212121212121212-9-9-9-9-9-9-9-9-9-9-9-9--2-2-2-2-|
E:|------------------------------------------------------------0-0-0-0-|
PM                                                             * * * *


[Chorus]

Gtr I

e:|-----------------------------------------------------------------|
B:|-----------------------------------------------------------------|
G:|-----------------------------------------------------------------|
D:|-2-2-2-2-2-2-2-2-2-2-2-2-2-2-2-2-9-9-9-9-9-9-9-9-----------------|
A:|-2-2-2-2-2-2-2-2-2-2-2-2-2-2-2-2-9-9-9-9-9-9-9-9-9-9-9-9-9-9-9-9-|
E:|-0-0-0-0-0-0-0-0-0-0-0-0-0-0-0-0-7-7-7-7-7-7-7-7-8-8-8-8-8-8-8-8-|

e:|--------------------------------------------------------------------|
B:|--------------------------------------------------------------------|
G:|--------------------------------------------------------------------|
D:|-11111111111111111111111111111111-----------------------------------|
A:|-11111111111111111111111111111111-1212121212121212-1111111111111111-|
E:|-9-9-9-9-9-9-9-9-9-9-9-9-9-9-9-9--8-8-8-8-8-8-8-8--8-8-8-8-8-8-8-8--|

Gtr II

e:|-----------------------------------------------------------------------|
B:|-----------------------------------------------------------------------|
G:|-9-9-99-99/11-11-11/13/11-11-11-11/13-13/16/14/13-13-13-13-13/14-14/13-|
D:|-x-x-xx-xx-x--x--x--x--x--x--x--x--x--x--x--x--x--x--x--x--x--x--x--x--|
A:|-7-7-77-77/9--9--9/-11/9--9--9--9/-11-11/14/12/11-11-11-11-11/12-12/11-|
E:|-----------------------------------------------------------------------|

e:|--------------------------|
B:|--------------------------|
G:|-13-9/11-11-11-//9-8~--4~-|
D:|-x--x--x--x--x---x-x---x--|
A:|-11-7/-9--9--9-//7-6~--2~-|
E:|--------------------------|


[Pre-Verse]

Gtr I

e:|------------------|
B:|---9--------9-----|
G:|-------9--------9-|
D:|-9---9---9----9---|
A:|------------------|
E:|------------------|

Repeat Verse

Repeat Pre-Chorus


[Chorus II]

Gtr I

e:|-----------------------------------------------------------------|
B:|-----------------------------------------------------------------|
G:|-----------------------------------------------------------------|
D:|-2-2-2-2-2-2-2-2-2-2-2-2-2-2-2-2-9-9-9-9-9-9-9-9-----------------|
A:|-2-2-2-2-2-2-2-2-2-2-2-2-2-2-2-2-9-9-9-9-9-9-9-9-9-9-9-9-9-9-9-9-|
E:|-0-0-0-0-0-0-0-0-0-0-0-0-0-0-0-0-7-7-7-7-7-7-7-7-8-8-8-8-8-8-8-8-|

e:|--------------------------------------------------------------------|
B:|--------------------------------------------------------------------|
G:|--------------------------------------------------------------------|
D:|-11111111111111111111111111111111-----------------------------------|
A:|-11111111111111111111111111111111-1212121212121212-1111111111111111-|
E:|-9-9-9-9-9-9-9-9-9-9-9-9-9-9-9-9--8-8-8-8-8-8-8-8--8-8-8-8-8-8-8-8--|

e:|-----------------------------------------------------------------|
B:|-----------------------------------------------------------------|
G:|-----------------------------------------------------------------|
D:|-2-2-2-2-2-2-2-2-2-2-2-2-2-2-2-2-9-9-9-9-9-9-9-9-----------------|
A:|-2-2-2-2-2-2-2-2-2-2-2-2-2-2-2-2-9-9-9-9-9-9-9-9-9-9-9-9-9-9-9-9-|
E:|-0-0-0-0-0-0-0-0-0-0-0-0-0-0-0-0-7-7-7-7-7-7-7-7-8-8-8-8-8-8-8-8-|

e:|------------------------------------------------------------------------|
B:|------------------------------------------------------------------------|
G:|------------------------------------------------------------------------|
D:|-11111111111111111111111111111111-----------------------------------2~~-|
A:|-11111111111111111111111111111111-1212121212121212-1111111111111111-2~~-|
E:|-9-9-9-9-9-9-9-9-9-9-9-9-9-9-9-9--8-8-8-8-8-8-8-8--8-8-8-8-8-8-8-8--0~~~|


[Bridge]

Guitar I x4

e:|-----------------------------------------------------------------|
B:|-----------------------------------------------------------------|
G:|-----------------------------------------------------------------|
D:|-----------------------------------------------------------------|
A:|-7-7-7-7-7-7-7-7-7-7-7-7-7-7-7-7-4-4-4-4-4-4-4-4-4-4-4-4-4-4-4-4-|
E:|-9-9-9-9-9-9-9-9-9-9-9-9-9-9-9-9-5-5-5-5-5-5-5-5-5-5-5-5-5-5-5-5-|
    ...............................................................
palm mute

e:|-----------------------------------------------------------------|
B:|-----------------------------------------------------------------|
G:|-----------------------------------------------------------------|
D:|-----------------------------------------------------------------|
A:|-7-7-7-7-7-7-7-7-7-7-7-7-7-7-7-7-6-6-6-6-6-6-6-6-6-6-6-6-6-6-6-6-|
E:|-7-7-7-7-7-7-7-7-7-7-7-7-7-7-7-7-7-7-7-7-7-7-7-7-7-7-7-7-7-7-7-7-|
    ...............................................................
palm mute




Guitar II 

e|------------------------------------------------------------------|
B|------------------------------------------------------------------|
G|-9-9-9-9-9-9-9-9-9-9-9-9-9-9-9-9-8-8-8-8-8-8-8-8/9-9-9-9/11111111-|
D|-x-x-x-x-x-x-x-x-x-x-x-x-x-x-x-x-x-x-x-x-x-x-x-x-x-x-x-x--x-x-x-x-|
A|-7-7-7-7-7-7-7-7-7-7-7-7-7-7-7-7-6-6-6-6-6-6-6-6/7-7-7-7/-9-9-9-9-|
E|------------------------------------------------------------------|

e|-------------------------------------------------------------------|
B|-------------------------------------------------------------------|
G|-13131313131313131313131313131313-11111111111111111111111111111111-|
D|--x-x-x-x-x-x-x-x-x-x-x-x-x-x-x-x--x-x-x-x-x-x-x-x-x-x-x-x-x-x-x-x-|
A|-11111111111111111111111111111111--9-9-9-9-9-9-9-9-9-9-9-9-9-9-9-9-|
E|-------------------------------------------------------------------|

e|------------------------------------------------------------------|
B|------------------------------------------------------------------|
G|-9-9-9-9-9-9-9-9-9-9-9-9-9-9-9-9-8-8-8-8-8-8-8-8/9-9-9-9/11111111-|
D|-x-x-x-x-x-x-x-x-x-x-x-x-x-x-x-x-x-x-x-x-x-x-x-x-x-x-x-x--x-x-x-x-|
A|-7-7-7-7-7-7-7-7-7-7-7-7-7-7-7-7-6-6-6-6-6-6-6-6/7-7-7-7/-9-9-9-9-|
E|------------------------------------------------------------------|

e|---------------------------------------------------------------------|
B|---------------------------------------------------------------------|
G|-13131313131313131313131313131313-1111111111111111/13131313/14141414-|
D|--x-x-x-x-x-x-x-x-x-x-x-x-x-x-x-x--x-x-x-x-x-x-x-x--x-x-x-x--x-x-x-x-|
A|-11111111111111111111111111111111--9-9-9-9-9-9-9-9/11111111/12121212-|
E|---------------------------------------------------------------------|

e|--------------------------------------------------------------------|
B|--------------------------------------------------------------------|
G|-16161616161616161616161616161616-1414141414141414-1313131313131313-|
D|--x-x-x-x-x-x-x-x-x-x-x-x-x-x-x-x--x-x-x-x-x-x-x-x--x-x-x-x-x-x-x-x-|
A|-14141414141414141414141414141414-1212121212121212-1111111111111111-|
E|--------------------------------------------------------------------|

e|--------------------------------------------------------------------|
B|--------------------------------------------------------------------|
G|-111111111111111111111111/9-9-9-9/1313131313131313/1111111111111111-|
D|--x-x-x-x-x-x-x-x-x-x-x-x-x-x-x-x--x-x-x-x-x-x-x-x--x-x-x-x-x-x-x-x-|
A|--9-9-9-9-9-9-9-9-9-9-9-9/7-7-7-7/1111111111111111/-9-9-9-9-9-9-9-9-|
E|--------------------------------------------------------------------|

e|------------------------------------------------------------------|
B|------------------------------------------------------------------|
G|-9-9-9-9-9-9-9-9-9-9-9-9-9-9-9-9-8-8-8-8-8-8-8-8/9-9-9-9/11111111-|
D|-x-x-x-x-x-x-x-x-x-x-x-x-x-x-x-x-x-x-x-x-x-x-x-x-x-x-x-x--x-x-x-x-|
A|-7-7-7-7-7-7-7-7-7-7-7-7-7-7-7-7-6-6-6-6-6-6-6-6/7-7-7-7/-9-9-9-9-|
E|------------------------------------------------------------------|

e|-------------------------------------------------|
B|-------------------------------------------------|
G|-11111111111111111111111111111111-8/9-8/9-11/9/8-|
D|--x-x-x-x-x-x-x-x-x-x-x-x-x-x-x-x-x-x-x-x--x-x-x-|
A|--9-9-9-9-9-9-9-9-9-9-9-9-9-9-9-9-6/7-6/7--9/7/6-|
E|-------------------------------------------------|


Last Chorus

Guitar I

e|-----------------------------------------------------------------|
B|-----------------------------------------------------------------|
G|-----------------------------------------------------------------|
D|-2-2-2-2-2-2-2-2-2-2-2-2-2-2-2-2-9-9-9-9-9-9-9-9-----------------|
A|-2-2-2-2-2-2-2-2-2-2-2-2-2-2-2-2-9-9-9-9-9-9-9-9-9-9-9-9-9-9-9-9-|
E|-0-0-0-0-0-0-0-0-0-0-0-0-0-0-0-0-7-7-7-7-7-7-7-7-8-8-8-8-8-8-8-8-|

e|--------------------------------------------------------------------|
B|--------------------------------------------------------------------|
G|--------------------------------------------------------------------|
D|-11111111111111111111111111111111-----------------------------------|
A|-11111111111111111111111111111111-1212121212121212-1111111111111111-|
E|-9-9-9-9-9-9-9-9-9-9-9-9-9-9-9-9--8-8-8-8-8-8-8-8--8-8-8-8-8-8-8-8--|

e|-----------------------------------------------------------------|
B|-----------------------------------------------------------------|
G|-----------------------------------------------------------------|
D|-2-2-2-2-2-2-2-2-2-2-2-2-2-2-2-2-9-9-9-9-9-9-9-9-----------------|
A|-2-2-2-2-2-2-2-2-2-2-2-2-2-2-2-2-9-9-9-9-9-9-9-9-9-9-9-9-9-9-9-9-|
E|-0-0-0-0-0-0-0-0-0-0-0-0-0-0-0-0-7-7-7-7-7-7-7-7-8-8-8-8-8-8-8-8-|

e|------------------------------------------------------------------------|
B|------------------------------------------------------------------------|
G|------------------------------------------------------------------------|
D|-11111111111111111111111111111111-----------------------------------2~~-|
A|-11111111111111111111111111111111-1212121212121212-1111111111111111-2~~-|
E|-9-9-9-9-9-9-9-9-9-9-9-9-9-9-9-9--8-8-8-8-8-8-8-8--8-8-8-8-8-8-8-8--0~~~|

Guitar II

e|-----------------------------------------------------------------------|
B|-----------------------------------------------------------------------|
G|-9-9-99-99/11-11-11/13/11-11-11-11/13-13/16/14/13-13-13-13-13/14-14/13-|
D|-x-x-xx-xx-x--x--x--x--x--x--x--x--x--x--x--x--x--x--x--x--x--x--x--x--|
A|-7-7-77-77/9--9--9/-11/9--9--9--9/-11-11/14/12/11-11-11-11-11/12-12/11-|
E|-----------------------------------------------------------------------|

e|------------------------------|
B|------------------------------|
G|-13-9/11-11-11-//9-8~---------|
D|-x--x--x--x--x---x-x----------|
A|-11-7/-9--9--9-//7-6~-2h4-2h4-|
E|------------------------------|

e|--------------------------------------------------|
B|--------------------------------------------------|
G|-9/11/9-999/11-11/13-13/11-11-11/13-13-9/11/13/11-|
D|-x-x--x-xxx-x--x--x--x--x--x--x--x--x--x-x--x--x--|
A|-7/9-/7-777/9--9-/11-11/9--9--9-/11-11-7/9-/11/9--|
E|--------------------------------------------------|

e|------------------------------------------------------------|
B|------------------------------------------------------------|
G|-16161616-14141414-13131313131313/9/11/11-1111/9/13~-8~-9~~-|
D|-x-x-x-x--x-x-x-x--x-x-x-x-x-x-x--x--x--x--x-x-x-x---x--x---|
A|-14141414-12121212-11111111111111/7/-9/-9--9-9/7/11~-6~-7~~-|
E|------------------------------------------------------------|


[Outro]

Guitar II palm mute

e |---------------------------------------------------------------------|
B |---------------------------------------------------------------------|
G |---------------------------------------------------------------------|
D |---------------------------------------------------------------------|
A |---------------------------------------------------------------------|
E |-99999999999999999999999999999999-0000000000000000-77777777-44444444-|
    ................................ ................ ........ ........



finishes with

Guitar I

e|--------------|
B|--------------|
G|-<2>-<3>------|
D|-----------2~-|
A|---------0-0~-|
E|--------------|

Gtr II

e:|------|
B:|------|
G:|------|
D:|------|
A:|---7~-|
E:|-5----|



************************************

| x  Dead note
| h  Hammer-on
| <> Ghost Note
| /  Slide up
| ~  Vibrato

************************************
Suggest correction
Creating personal tab
Creating personal tab
You can edit any tab online and save it as your Personal.

You can edit, replace or remove any tab part or add personal notes – all changes will be seen only by you.

Personal tabs can be accessed anytime from any device, even offline.
Learn more »
comments
print report bad tab
6 comments total. Showing first comments.
-2 reply
mcr_01_fan 697 Apr 05, 2008 11:38 AM

Well this looks strangeley familiar.
Three Cheers For Sweet Revenge album tab version 2 perhaps?

-1 reply
parliamentisded 10 Dec 29, 2009 03:52 PM

?... this is a wierd tab sounds like ur guitar parts for gui. 1 is a bass tab and um put some lyrics in plz

+1 reply
rocker_life 10 Jan 02, 2014 06:23 PM

here you go parliamentisded

Long ago
Just like the hearse you died to get in again
We are
So far from you

Burning on
Just like a match you
Strike to incinerate
The lives
Of everyone you know
And what's the worst to take
From every heart you break
And like a blade you'll stain
Well I've been holding on
Tonight

What's the worst thing i can say
Things are better id I stay
So long and goodnight
So long not goodnight

Came a time
When every star fall
Brought you to tears again
We are
The very hurt you sold
And what's the worst to take
From every heart you break
And like a blade you'll stain
Well I've been holding on
Tonight

What's the worst thing I can say
Things are better if I stay
So long and goodnight
So long, not goodnight
And if you carry on this way
Things are better if I say
So long and goodnight
So long, not goodnight

Can you, hear me?
Are you, near me?
Can we pretend
To leave
And then
We'll meet again
When both our cars
Collide

What's the worst thing I can say
Things are better id I stay
So long and goodnight
So long, not goodnight
Well if you carry on this way
Things are better if I stay
S long and goodnight
So long, not goodnight

...Great lyrics to a Great song:)

guest
Wanna post a correction for this tab? Suggest correction