Oops, an error
Loading. Please wait.

Honey This Mirror Isnt Big Enough For The Two Of Us bass

version 2
version 2

Whole song

Interactive

2,806 views 9 this week
no commentswrite comment
1 2 3 4 5
x 6
add to favorites
×
Save as Personal and add changes to this tab that will be seen only by you. Learn more ›
×
You can save this tab as Personal to edit and correct it or add notes. All changes will be seen only by you. Learn more »
launch autoscroll
font size
0
reset
guitar tuner
edit
Autoscroll
slow
fast
+/-
esc
set tempo
stop
Author
Difficulty
This is my first bass tab and it took me while to get it. Not all of it is right but its 
close. The parts you think that are wrong just email me at simpleplan2442@hotmail.com 
song is really cool so have fun playing it.


G:|----------------------------------------------|
D:|----------------------------------------------|
A:|-4444-66-77-3333-66-77-------66-77-99-77-66-77|
E:|----------------------4444--------------------|
play 4 times


G|-----------------|-------------------|------------------|-------------------|
D|-----------------|-------------------|------------------|-------------------|
A|-4-4-4-4-4-4-4-4-|-------------------|---4-4-4-4-4-4-4-4|-------------------|
E|-----------------|-4-5-5-5-5-5-5-5-5-|-4----------------|-4-5-5-5-5-5-5-5-5-|

G|-----------------|-----------------|-----------------|-----------------|
D|-----------------|-----------------|-----------------|-----------------|
A|---4-4-4-4-4-4-4-|-2-2-2-2-2-2-2-2-|-1-1-1-1-1-1-1-1-|-0-0-0-0-0-0-0-0-|
E|-4---------------|-----------------|-----------------|-----------------|

G|-----------------|-------------------|------------------|-------------------|
D|-----------------|-------------------|------------------|-------------------|
A|-4-4-4-4-4-4-4-4-|-------------------|---4-4-4-4-4-4-4-4|-------------------|
E|-----------------|-4-5-5-5-5-5-5-5-5-|-4----------------|-4-5-5-5-5-5-5-5-5-|

G|-----------------|-----------------|-----------------|-----------------|
D|-----------------|-----------------|-----------------|-----------------|
A|---4-4-4-4-4-4-4-|-2-2-2-2-2-2-2-2-|-1-1-1-1-1-1-1-1-|-0-0-0-0-0-0-0-0-|
E|-4---------------|-----------------|-----------------|-----------------|

G|------------------------------------------|-----------------|-----------------|-----------------|
D|-----------------------------7h8p7--------|-----------------|-----------------|-----------------|
A|-4~-------7~---------0~-------------------|-----------------|-----------------|-----------------|
E|----------------------------------44444444|-5-5-5-5-5-5-5-5-|-0-0-0-0-0-0-0-0-|-4-4-4-4-4-4-4-4-|

G|--------------|
D|--------------|
A|--------------|
E|22-022-020-22-|

G|-----------------|-----------------|-----------------|-----------------|
D|-----------------|-----------------|-----------------|-----------------|
A|-4-4-4-4-4-4-4-4-|-2-2-2-2-2-2-2-2-|-----------------|-0-0-0-0-0-0-0-0-|
E|-----------------|-----------------|-2-2-2-2-2-2-2-2-|-----------------|

G|-----------------|
D|-----------------|
A|-0-0-0-0-2-2-2-2-|
E|-----------------|

G|----------------|----------------|----------------|----------------|
D|----------------|----------------|----------------|----------------|
A|-4-4-4-4-4-4-4-4|-0-0-0-0-0-0-0-0|-4-4-4-4-4-4-4-4|-1-1-1-1-1-1-1-1|
E|----------------|----------------|----------------|----------------|

G|-----------------|-----------------|-----------------|-----------------|
D|-----------------|-----------------|-----------------|-----------------|
A|---4-4-4-4-4-4-4-|-2-2-2-2-2-2-2-2-|-0-0-0-0-0-0-0-0-|-0-0-0-0-0-0-0-0-|
E|-4---------------|-----------------|-----------------|-----------------|

G|-----------------|-------------------|------------------|-------------------|
D|-----------------|-------------------|------------------|-------------------|
A|-4-4-4-4-4-4-4-4-|-------------------|---4-4-4-4-4-4-4-4|-------------------|
E|-----------------|-4-5-5-5-5-5-5-5-5-|-4----------------|-4-5-5-5-5-5-5-5-5-|

G|-----------------|-----------------|-----------------|-----------------|
D|-----------------|-----------------|-----------------|-----------------|
A|---4-4-4-4-4-4-4-|-2-2-2-2-2-2-2-2-|-1-1-1-1-1-1-1-1-|-0-0-0-0-0-0-0-0-|
E|-4---------------|-----------------|-----------------|-----------------|

G|------------------------------------------|-----------------|-----------------|-----------------|
D|-----------------------------7h8p7--------|-----------------|-----------------|-----------------|
A|-4~-------7~---------0~-------------------|-----------------|-----------------|-----------------|
E|----------------------------------44444444|-5-5-5-5-5-5-5-5-|-0-0-0-0-0-0-0-0-|-4-4-4-4-4-4-4-4-|

G|--------------|
D|--------------|
A|--------------|
E|22-022-020-22-|

G|-----------------|-----------------|-----------------|-----------------|
D|-----------------|-----------------|-----------------|-----------------|
A|-4-4-4-4-4-4-4-4-|-2-2-2-2-2-2-2-2-|-----------------|-0-0-0-0-0-0-0-0-|
E|-----------------|-----------------|-2-2-2-2-2-2-2-2-|-----------------|

G|-----------------|
D|-----------------|
A|-0-0-0-0-2-2-2-2-|
E|-----------------|
not sure thats right
G|--------------|----------------|
D|--------------|----------------|
A|-4-4-4-4-4-4-4|-0-0-0-0-0-0-0-0|x2
E|--------------|----------------|

G|----------------|----------------|----------------|----------------|
D|----------------|----------------|----------------|----------------|
A|-4-4-4-4-4-4-4-4|-2-2-2-2-2-2-2-2|-1-1-1-1-1-1-1-1|-0-0-0-0-0-0-0-0|x2
E|----------------|----------------|----------------|----------------|

G:|-----------------------------------------------|
D:|-----------------------------------------------|
A:|-4444-66-77-3333-66-77-------66-77-99-77-66-77-|
E:|--------------------------4444-----------------|
play 4 times

            
            
Suggest correction
Creating personal tab
Creating personal tab
You can edit any tab online and save it as your Personal.

You can edit, replace or remove any tab part or add personal notes – all changes will be seen only by you.

Personal tabs can be accessed anytime from any device, even offline.
Learn more »
comments
print report bad tab
guest
You may want to rate the tab now too:
select rating
Wanna post a correction for this tab? Suggest correction