Oops, an error
Loading. Please wait.

Honey This Mirror Isnt Big Enough For The Two Of Us tab

version 2
version 2

Whole song

Interactive

20,370 views 84 this week
9 commentsread comments
1 2 3 4 5
x 16
add to favorites
×
Save as Personal and add changes to this tab that will be seen only by you. Learn more ›
×
You can save this tab as Personal to edit and correct it or add notes. All changes will be seen only by you. Learn more »
launch autoscroll
font size
0
reset
how to read this tab
guitar tuner
edit
Autoscroll
slow
fast
+/-
esc
set tempo
stop
Author
Difficulty
Artist: My Chemical Romance
Song: Honey, This Mirror Isn't Big Enough For The Two Of Us
Album: I Brought You My Bullets, You Brought Me Your Love

Key:

*:- Palm Mute
x:- String Mute
~:- Let Ring
<#>:- Natural Harmonic
/:- Slide
h:- Hammer On
p:- Pull Off

Gtr I: Ray Toro: Standard Tuning (e,B,G,D,A,E)
Gtr II: Frank Iero: Standard Tuning (e,B,G,D,A,E)
Bass Gtr: Mikey Way: Standard Tuning (G,D,A,E)

RE-TABBED!

Intro:

Gtr I  (This is all Gtr I plays until verse)

e:|-----------------------------------|
B:|-----------------------------------|
G:|-----------------------------------|  
D:|-----------------------------------|
A:|---4---4---4---4---6---6---7---7---|
E:|-4---4---4---4---4---4---4---4-----|
PM  *   *   *   *   *   *   *   *

e:|-----------------------------------|
B:|-----------------------------------|
G:|-----------------------------------|  
D:|-----------------------------------|
A:|---4---4---4---4---6---6---7---7---|
E:|-5---5---5---5---5---5---5---5-----|
PM  *   *   *   *   *   *   *   *


e:|-----------------------------------|
B:|-----------------------------------|
G:|-----------------------------------|
D:|-----------------------------------|
A:|---3---3---3---3---4---4---6---6---|
E:|-4---4---4---4---4---4---4---4-----|
PM  *   *   *   *   *   *   *   *

e:|-----------------------------------|
B:|-----------------------------------|
G:|-----------------------------------|
D:|-----------------------------------|
A:|---6---6---6---6---4---4---4---4---|
E:|-4---4---4---4---4---4---4---4-----|
PM  *   *   *   *   *   *   *   *

After Gtr I has played intro once:

Gtr II 


e:|-----------------------------|
B:|-----------------------------|
G:|-6-~~----5~~-----------------|
D:|-6~~-----5~~-----6~~----7~~--| (x2)
A:|-4~~-----3~~-----6~~----7~~--|
E:|-----------------4~~----5~~--|

e:|-----------------------|
B:|-----------------------|
G:|-----------------------|
D:|-----------------------|
A:|-----------------------|
E:|-/////Pick-Scrape\\\\\-|

e:|-----------------------------------------------------------------|
B:|-----------------------------------------------------------------|
G:|-6-6-6-6-6-6-6-6/8-8-8-8/9-9-9-9-5-5-5-5-5-5-5-5/8-8-8-8/9-9-9-9-|
D:|-x-x-x-x-x-x-x-x-x-x-x-x-x-x-x-x-x-x-x-x-x-x-x-x-x-x-x-x-x-x-x-x-|
A:|-4-4-4-4-4-4-4-4/6-6-6-6/7-7-7-7-3-3-3-3-3-3-3-3/6-6-6-6/7-7-7-7-|
E:|-----------------------------------------------------------------|

e:|------------------------------------------------------------------|
B:|------------------------------------------------------------------|
G:|-----------------8-8-8-8/9-9-9-9/11111111/9-9-9-9/8-8-8-8/9-9-9-9-|
D:|-6-6-6-6-6-6-6-6-x-x-x-x-x-x-x-x--x-x-x-x-x-x-x-x-x-x-x-x-x-x-x-x-|
A:|-x-x-x-x-x-x-x-x-6-6-6-6/7-7-7-7/-9-9-9-9/7-7-7-7/6-6-6-6/7-7-7-7-|
E:|-4-4-4-4-4-4-4-4--------------------------------------------------|

e:|-----------------------------------------------------------------|
B:|-----------------------------------------------------------------|
G:|-6-6-6-6-6-6-6-6/8-8-8-8/9-9-9-9-5-5-5-5-5-5-5-5/8-8-8-8/9-9-9-9-|
D:|-x-x-x-x-x-x-x-x-x-x-x-x-x-x-x-x-x-x-x-x-x-x-x-x-x-x-x-x-x-x-x-x-|
A:|-4-4-4-4-4-4-4-4/6-6-6-6/7-7-7-7-3-3-3-3-3-3-3-3/6-6-6-6/7-7-7-7-|
E:|-----------------------------------------------------------------|

e:|------------------------------------------------------------------|
B:|------------------------------------------------------------------|
G:|-----------------8-8-8-8/9-9-9-9/11111111/9-9-9-9/8-8-8-8/9-9-9-9-|
D:|-6-6-6-6-6-6-6-6-x-x-x-x-x-x-x-x--x-x-x-x-x-x-x-x-x-x-x-x-x-x-x-x-|
A:|-x-x-x-x-x-x-x-x-6-6-6-6/7-7-7-7/-9-9-9-9/7-7-7-7/6-6-6-6/7-7-7-7-|
E:|-4-4-4-4-4-4-4-4--------------------------------------------------|

Verse I:

(repeat whole thing twice)

Both Gtrs

e:|---------------------------------------------------------------|
B:|---------------------------------------------------------------|
G:|-6-------------------------------------------------------------|
D:|-6-6-6-6-6-6-6-6-6-6-6-6-6-6-6-6-7-----------------------------|
A:|-4-4-4-4-4-4-4-4-4-4-4-4-4-4-4-6-7-7-7-7-7-7-7-7-7-7-7-7-7-7-7-|
E:|-------------------------------4-5-5-5-5-5-5-5-5-5-5-5-5-5-5-5-|
PM    * * * * * * * * * * * * * *     * * * * * * * * * * * * * *

e:|---------------------------------------------------------------|
B:|---------------------------------------------------------------|
G:|-6-------------------------------------------------------------|
D:|-6-6-6-6-6-6-6-6-6-6-6-6-6-6-6-6-7-----------------------------|
A:|-4-4-4-4-4-4-4-4-4-4-4-4-4-4-4-6-7-7-7-7-7-7-7-7-7-7-7-7-7-7-7-|
E:|-------------------------------4-5-5-5-5-5-5-5-5-5-5-5-5-5-5-5-|
PM    * * * * * * * * * * * * * *     * * * * * * * * * * * * * *

Gtr I

e:|-----------------------------------------------------------------|
B:|-----------------------------------------------------------------|
G:|-6-6-6-6-6-6-6-6-6-6-6-6-6-6-6-6/9-9-9-9-9-9-9-9-9-9-9-9-9-9-9-9-|
D:|-x-x-x-x-x-x-x-x-x-x-x-x-x-x-x-x-x-x-x-x-x-x-x-x-x-x-x-x-x-x-x-x-|
A:|-4-4-4-4-4-4-4-4-4-4-4-4-4-4-4-4/7-7-7-7-7-7-7-7-7-7-7-7-7-7-7-7-|
E:|-----------------------------------------------------------------|

e:|------------------------------------------------------------------|
B:|------------------------------------------------------------------|
G:|-9-9-9-9-9-9-9-9-9-9-9-9-9-9-9-9-9-9-9-9-9-9-9-9-9-9-9-9/11111111-|
D:|-x-x-x-x-x-x-x-x-x-x-x-x-x-x-x-x-x-x-x-x-x-x-x-x-x-x-x-x--x-x-x-x-|
A:|-7-7-7-7-7-7-7-7-7-7-7-7-7-7-7-7-7-7-7-7-7-7-7-7-7-7-7-7/-9-9-9-9-|
E:|------------------------------------------------------------------|

Gtr II

e:|-----------------------------------------------------------------|
B:|-----------------------------------------------------------------|
G:|-----------------------------------------------------------------|
D:|-6-6-6-6-6-6-6-6-6-6-6-6-6-6-6-6-4-4-4-4-4-4-4-4-4-4-4-4-4-4-4-4-|
A:|-4-4-4-4-4-4-4-4-4-4-4-4-4-4-4-4-2-2-2-2-2-2-2-2-2-2-2-2-2-2-2-2-|
E:|-----------------------------------------------------------------|

e:|-----------------------------------------------------------------|
B:|-----------------------------------------------------------------|
G:|-----------------------------------------------------------------|
D:|-2-2-2-2-2-2-2-2-2-2-2-2-2-2-2-2-2-2-2-2-2-2-2-2-2-2-2-2-2-2-2-2-|
A:|-0-0-0-0-0-0-0-0-0-0-0-0-0-0-0-0-0-0-0-0-0-0-0-0-0-0-0-0-0-0-0-0-|
E:|-----------------------------------------------------------------|

Pre-Chorus:

Gtr I

e:|------<12>~~-------------------------------------|
B:|-<12>--------------------------------------------|
G:|-------------------------------------------------|
D:|-------------------------------------------------|
A:|-----------------6-6-6-6-6-6-6-6-6-6-6-6-6-6-6-6-|
E:|-----------------4-4-4-4-4-4-4-4-4-4-4-4-4-4-4-4-|
PM                  * * * * * * * * * * * * * * * *

Gtr II

e:|--------------------------------------------------------|
B:|-5--5-4-------------5-----------------------------------|
G:|------------4/6~~~~---6---------------------------------|
D:|--------6-7---------------------------------------------|
A:|------------------------6-6-6-6-6-6-6-6-6-6-6-6-6-6-6-6-|
E:|------------------------4-4-4-4-4-4-4-4-4-4-4-4-4-4-4-4-|
PM                         * * * * * * * * * * * * * * * *

Chorus:

Both Gtrs

e:|-----------------------------------------------------------------|
B:|-----------------------------------------------------------------|
G:|-----------------------------------------------------------------|
D:|-7-7-7-7-7-7-7-7-7-7-7-7-7-7-7-7-2-2-2-2-2-2-2-2-2-2-2-2-2-2-2-2-|
A:|-7-7-7-7-7-7-7-7-7-7-7-7-7-7-7-7-2-2-2-2-2-2-2-2-2-2-2-2-2-2-2-2-|
E:|-5-5-5-5-5-5-5-5-5-5-5-5-5-5-5-5-0-0-0-0-0-0-0-0-0-0-0-0-0-0-0-0-|

e:|----------------------------------------------------|
B:|----------------------------------------------------|
G:|----------------------------------------------------|
D:|-6-6-6-6-6-6-6-6-6-6-6-6-6-6-6-6--4-2-4-2-4-2-4-2-4-|
A:|-6-6-6-6-6-6-6-6-6-6-6-6-6-6-6-6--4-2-4-2-4-2-4-2-4-|
E:|-4-4-4-4-4-4-4-4-4-4-4-4-4-4-4-4--2-0-2-0-2-0-2-0-2-|

Gtr I

e:|-----------------------------------------------------------------|
B:|-----5-5-4-4---------5-5-4-4---------5-5-4-4---------4-4-5-5-7-7-|
G:|-6-6---------4-4-6-6---------4-4-6-6---------4-4-6-6-------------|
D:|-----------------------------------------------------------------|
A:|-----------------------------------------------------------------|
E:|-----------------------------------------------------------------|

e:|-----------------------------------------------------------------|
B:|-----5-5-4-4---------5-5-4-4---------5-5-4-4---------4-4-5-5-7-7-|
G:|-6-6---------4-4-6-6---------4-4-6-6---------4-4-6-6-------------|
D:|-----------------------------------------------------------------|
A:|-----------------------------------------------------------------|
E:|-----------------------------------------------------------------|

Gtr II

e:|-----------------------------------------------------------------|
B:|-----------------------------------------------------------------|
G:|-----------------------------------------------------------------|
D:|-6-6-6-6-6-6-6-6-6-6-6-6-6-6-6-6-2-2-2-2-2-2-2-2-2-2-2-2-2-2-2-2-|
A:|-4-4-4-4-4-4-4-4-4-4-4-4-4-4-4-4-2-2-2-2-2-2-2-2-2-2-2-2-2-2-2-2-|
E:|---------------------------------0-0-0-0-0-0-0-0-0-0-0-0-0-0-0-0-|

e:|-----------------------------------------------------------------|
B:|-----------------------------------------------------------------|
G:|-----------------------------------------------------------------|
D:|-4-4-4-4-4-4-4-4-4-4-4-4-4-4-4-4-6-6-6-6-6-6-6-6-6-6-6-6-6-6-6-6-|
A:|-4-4-4-4-4-4-4-4-4-4-4-4-4-4-4-4-6-6-6-6-6-6-6-6-6-6-6-6-6-6-6-6-|
E:|-2-2-2-2-2-2-2-2-2-2-2-2-2-2-2-2-4-4-4-4-4-4-4-4-4-4-4-4-4-4-4-4-|

Both Gtrs

e:|---------------------------------|
B:|---------------------------------|
G:|---------------------------------|
D:|---------------------------------|
A:|-7-7-7-7-7-7-7-7-9-9-9-9-9-9-9-9-|
E:|-5-5-5-5-5-5-5-5-7-7-7-7-7-7-7-7-|
PM  * * * * * * * * * * * * * * * *

Verse II Pt I:

Gtr I

e:|--------------------|
B:|--------------------|
G:|-6~~~~~~~~~~~~~~~~~-|
D:|-6~~~~~~~~~~~~~~~~~-|
A:|-4~~~~~~~~~~~~~~~~~-|
E:|--------------------|

e:|-----------------------------------------------------------------|
B:|-----------------------------------------------------------------|
G:|-6-6-6-6-6-6-6-6-6-6-6-6-6-6-6-6/9-9-9-9-9-9-9-9-9-9-9-9-9-9-9-9-|
D:|-x-x-x-x-x-x-x-x-x-x-x-x-x-x-x-x-x-x-x-x-x-x-x-x-x-x-x-x-x-x-x-x-|
A:|-4-4-4-4-4-4-4-4-4-4-4-4-4-4-4-4/7-7-7-7-7-7-7-7-7-7-7-7-7-7-7-7-|
E:|-----------------------------------------------------------------|

e:|------------------------------------------------------------------|
B:|------------------------------------------------------------------|
G:|-9-9-9-9-9-9-9-9-9-9-9-9-9-9-9-9-9-9-9-9-9-9-9-9-9-9-9-9/11111111-|
D:|-x-x-x-x-x-x-x-x-x-x-x-x-x-x-x-x-x-x-x-x-x-x-x-x-x-x-x-x--x-x-x-x-|
A:|-7-7-7-7-7-7-7-7-7-7-7-7-7-7-7-7-7-7-7-7-7-7-7-7-7-7-7-7/-9-9-9-9-|
E:|------------------------------------------------------------------|

Gtr II

e:|-----------------------------------------------------------------|
B:|-5~--5-4-4h5p4---------------------------------------------------|
G:|---------------------4/6-4-----------------8h9p8~-9/11-9h11/13~~-|
D:|----------------6h7--------7-6h7p6~--7/9~------------------------|
A:|-----------------------------------------------------------------|
E:|-----------------------------------------------------------------|

e:|-----------------------------------------------------------------|
B:|-----------------------------------------------------------------|
G:|-----------------------------------------------------------------|
D:|-6-6-6-6-6-6-6-6-6-6-6-6-6-6-6-6-4-4-4-4-4-4-4-4-4-4-4-4-4-4-4-4-|
A:|-4-4-4-4-4-4-4-4-4-4-4-4-4-4-4-4-2-2-2-2-2-2-2-2-2-2-2-2-2-2-2-2-|
E:|-----------------------------------------------------------------|

e:|-----------------------------------------------------------------|
B:|-----------------------------------------------------------------|
G:|-----------------------------------------------------------------|
D:|-2-2-2-2-2-2-2-2-2-2-2-2-2-2-2-2-2-2-2-2-2-2-2-2-2-2-2-2-2-2-2-2-|
A:|-0-0-0-0-0-0-0-0-0-0-0-0-0-0-0-0-0-0-0-0-0-0-0-0-0-0-0-0-0-0-0-0-|
E:|-----------------------------------------------------------------|

Verse II Pt II:

Gtr I (Slightly PM this.)

e:|-----4---------------4---------------4---------------4-----------|
B:|---5---5-7-5-4-0---5---5-7-5-4-0---5---5-7-5-4-0---5---5-7-5-4-0-|
G:|-6---------------6---------------6---------------6---------------|
D:|-----------------------------------------------------------------|
A:|-----------------------------------------------------------------|
E:|-----------------------------------------------------------------|

e:|-----------------------------------------------------------------|
B:|-----------------------------------------------------------------|
G:|-6-6-6-6-6-6-6-6-6-6-6-6-6-6-6-6/9-9-9-9-9-9-9-9-9-9-9-9-9-9-9-9-|
D:|-x-x-x-x-x-x-x-x-x-x-x-x-x-x-x-x-x-x-x-x-x-x-x-x-x-x-x-x-x-x-x-x-|
A:|-4-4-4-4-4-4-4-4-4-4-4-4-4-4-4-4/7-7-7-7-7-7-7-7-7-7-7-7-7-7-7-7-|
E:|-----------------------------------------------------------------|

e:|------------------------------------------------------------------|
B:|------------------------------------------------------------------|
G:|-9-9-9-9-9-9-9-9-9-9-9-9-9-9-9-9-9-9-9-9-9-9-9-9-9-9-9-9/11111111-|
D:|-x-x-x-x-x-x-x-x-x-x-x-x-x-x-x-x-x-x-x-x-x-x-x-x-x-x-x-x--x-x-x-x-|
A:|-7-7-7-7-7-7-7-7-7-7-7-7-7-7-7-7-7-7-7-7-7-7-7-7-7-7-7-7/-9-9-9-9-|
E:|------------------------------------------------------------------|

Gtr II

e:|---------------------------------------------------------------|
B:|---------------------------------------------------------------|
G:|---------------------------------------------------------------|
D:|-6-6-6-6-6-6-6-6-6-6-6-6-6-6-6---------------------------------|
A:|-4-4-4-4-4-4-4-4-4-4-4-4-4-4-4-6-7-7-7-7-7-7-7-7-7-7-7-7-7-7-6-|
E:|-------------------------------4-5-5-5-5-5-5-5-5-5-5-5-5-5-5-4-|
PM  * * * * * * * * * * * * * * * * * * * * * * * * * * * * * * *

e:|---------------------------------------------------------------|
B:|---------------------------------------------------------------|
G:|---------------------------------------------------------------|
D:|-6-6-6-6-6-6-6-6-6-6-6-6-6-6-6---------------------------------|
A:|-4-4-4-4-4-4-4-4-4-4-4-4-4-4-4-6-7-7-7-7-7-7-7-7-7-7-7-7-7-7-6-|
E:|-------------------------------4-5-5-5-5-5-5-5-5-5-5-5-5-5-5-4-|
PM  * * * * * * * * * * * * * * * * * * * * * * * * * * * * * * *

e:|-----------------------------------------------------------------|
B:|-----------------------------------------------------------------|
G:|-----------------------------------------------------------------|
D:|-6-6-6-6-6-6-6-6-6-6-6-6-6-6-6-6-4-4-4-4-4-4-4-4-4-4-4-4-4-4-4-4-|
A:|-4-4-4-4-4-4-4-4-4-4-4-4-4-4-4-4-2-2-2-2-2-2-2-2-2-2-2-2-2-2-2-2-|
E:|-----------------------------------------------------------------|

e:|-----------------------------------------------------------------|
B:|-----------------------------------------------------------------|
G:|-----------------------------------------------------------------|
D:|-2-2-2-2-2-2-2-2-2-2-2-2-2-2-2-2-2-2-2-2-2-2-2-2-2-2-2-2-2-2-2-2-|
A:|-0-0-0-0-0-0-0-0-0-0-0-0-0-0-0-0-0-0-0-0-0-0-0-0-0-0-0-0-0-0-0-0-|
E:|-----------------------------------------------------------------|

Repeat Pre-Chorus

Repeat Chorus

Bridge Pt I:

(Bass solo)

G:|---------------------------------------------------------------------|
D:|---------------------------------------------------------------------|
A:|-4--4-4-4-4-4-4-4------------------4--4-4-4-4-4-4-4------------------|
E:|------------------4--5-5-5-5-5-5-4------------------4--5-5-5-5-5-5-4-|

G:|----------------------------------------------------------|
D:|----------------------------------------------------------|
A:|--4--4--4-4-4-4-------------------------------------------|
E:|----------------7--7--7-7-7-7-6--6--6-6-6-6-5--5-5-5-5///-|

Bridge Pt II:

Both Gtr's

e:|-----------------------|
B:|-----------------------|
G:|-6~~~~~~~\---/8~~-9~~~-|
D:|-x------------x---x----|
A:|-4~~~~~~~\---/6~~-7~~~-|
E:|-----------------------|

Gtr I

e:|-----------------------------------|
B:|-----------------------------------|
G:|-----------------------------------|  
D:|-----------------------------------|
A:|---4---4---4---4---6---6---7---7---|
E:|-4---4---4---4---4---4---4---4-----|
PM  * * * * * * * * * * * * * * * *

e:|-----------------------------------|
B:|-----------------------------------|
G:|-----------------------------------|  
D:|-----------------------------------|
A:|---4---4---4---4---6---6---7---7---|
E:|-5---5---5---5---5---5---5---5-----|
PM  * * * * * * * * * * * * * * * *


e:|-----------------------------------|
B:|-----------------------------------|
G:|-----------------------------------|
D:|-----------------------------------|
A:|---3---3---3---3---4---4---6---6---|
E:|-5---5---5---5---5---5---5---5-----|
PM  * * * * * * * * * * * * * * * *

e:|-----------------------------------|
B:|-----------------------------------|
G:|-----------------------------------|
D:|-----------------------------------|
A:|---6---6---6---6---4---4---4---4---|
E:|-4---4---4---4---4---4---4---4-----|
PM  * * * * * * * * * * * * * * * *

Gtr II

e:|-------------------------------------------------|
B:|-1-----1------------------2-----2------5-----5---|
G:|---2-----2----4-----4-------4-----4------6-----6-|
D:|----------------6-----6--------------------------|
A:|-------------------------------------------------|
E:|-------------------------------------------------|

Outro:

Gtr I repeats intro

Gtr II

e:|-------------------------------------------------|
B:|-------------------------------------------------|
G:|-6--8--9--8--5--8--9--8-----8--9--8--11--9--8--9-|
D:|-x--x--x--x--x--x--x--x--6--x--x--x---x--x--x--x-|
A:|-4--6--7--6--3--6--7--6--x--6--7--6---9--7--6--7-|
E:|-------------------------4-----------------------|

e:|-------------------------------------------------|
B:|-------------------------------------------------|
G:|-6--8--9--8--5--8--9--8-----8--9--8--11--9--8--9-|
D:|-x--x--x--x--x--x--x--x--6--x--x--x---x--x--x--x-|
A:|-4--6--7--6--3--6--7--6--x--6--7--6---9--7--6--7-|
E:|-------------------------4-----------------------|

End on:

Gtr I

e:|---|
B:|---|
G:|---|
D:|-6-|
A:|-4-|
E:|---|

Gtr II

e:|---|
B:|---|
G:|-6-|
D:|-x-|
A:|-4-|
E:|---|


            
            
Suggest correction
Creating personal tab
Creating personal tab
You can edit any tab online and save it as your Personal.

You can edit, replace or remove any tab part or add personal notes – all changes will be seen only by you.

Personal tabs can be accessed anytime from any device, even offline.
Learn more »
comments
print report bad tab
9 comments total. Showing first comments.
0 reply
iero_fan_no_1 36 Feb 12, 2006 11:13 PM

cool not tryed it yet buuuuuuuuuuut it looks good and i trust you soooooooooooooooooooooooooo ***** for you ^_^

0 reply
eddie_effin_g 10 May 14, 2006 08:14 PM

awesome job with intro, i couldnt figure out to save my life that little extra something after each note but its def. a palm mute thnx

0 reply
river_of_souls 64 Jun 18, 2006 11:57 AM

This tab is so close to perfect. God Job man.

guest
You may want to rate the tab now too:
select rating
Wanna post a correction for this tab? Suggest correction