Oops, an error
Loading. Please wait.

House Of Wolves tab

version 1
version 1

Whole song

Interactive

12,956 views 6 this week
21 commentsread comments
1 2 3 4 5
x 8
add to favorites
×
Save as Personal and add changes to this tab that will be seen only by you. Learn more ›
×
You can save this tab as Personal to edit and correct it or add notes. All changes will be seen only by you. Learn more »
launch autoscroll
font size
0
reset
how to read this tab
guitar tuner
edit
Autoscroll
slow
fast
+/-
esc
set tempo
stop
Author
Difficulty
----------------------------------------------------------------------------
                             House of Wolves - My Chemical Romance
----------------------------------------------------------------------------
Tabbed by: maiden_rule
Email: daniel_keay_93@msn.com

Tuning: Standard

Intro

e|-----------------------------------------------------------------------|
B|-----------------------------------------------------------------------|
G|---9---9---7---7---5---5---4---------9---9---7---7---5---5---4---------|
D|---9---9---7---7---5---5---4---------9---9---7---7---5---5---4---------|
A|---7---7---5---5---3---3---2---------7---7---5---5---3---3---2---------|
E|-----------------------------------------------------------------------|

You do that twice after the drum intro, then Im not sure about the verse, I cant tell on 
version Ive got if its just bass, I think thees a little guitar bit I cant make out though.


This is the bit when Gerard goes "All people gonna burn in hell...."
e|-----------------------------------------|
B|-----------------------------------------| Thats the same in the 2nd verse
G|-----4-5--------7------8--8----9--9------|
D|-----4-5--------7------8--8----9--9------|
A|-----2-3--------5------6--6----7--7------|
E|-----------------------------------------|

After that you jsut go into this which Im pretty sure is the chorus riff

e|-------------------------------------------------------------------------|
B|-------------------------------------------------------------------------|
G|-9-9-9-9-9-9-9-9---------------------------------------------------------|
D|-9-9-9-9-9-9-9-9-10-10-10-10-10-10-10-10-7-7-7-7-7-7-7-7-9-9-9-9-9-9-9-9-|
A|-7-7-7-7-7-7-7-7-10-10-10-10-10-10-10-10-7-7-7-7-7-7-7-7-9-9-9-9-9-9-9-9-|
E|-----------------8--8--8--8--8--8--8--8--5-5-5-5-5-5-5-5-7-7-7-7-7-7-7-7-|


This is the bridge bit after the second chorus, I think

e|---------------------|
B|---------------------|
G|---------------------|  X4
D|----2---2-2---5---7--|
A|----2---2-2---5---7--|
E|----0---0-0---3---5--|

Then thers bit where its jsut Gerard singing something like "running with the devil 
he's never gonna leave me alone" and the guitar bit inbetween those bits is somehting like this

e|-----------------------------------------------------------------------|
B|-----------------------------------------------------------------------|
G|----------------------------------------------------------------7--9---|
D|---2---2-2---5--7---2---2-2---5--7---------------------9---9-9--7--9---|
A|---2---2-2---5--7---2---2-2---5--7---------------------9---9-9--5--7---|
E|---0---0-0---3--5---0---0-0---3--5---------------------7---7-7---------|
                                      Pause for singing

You play the second bit twice as well then just back into the chorus. And thats it as 
as I can see, this is only my second tab and sory it aint got no verse but Im pretty sure 
rest is right, it sounds fine when palying along with it anyway.


| /  slide up
| \  slide down
| h  hammer-on
| p  pull-off
| ~  vibrato
| +  harmonic
| x  Mute note
===============================================================================

            
            
Suggest correction
Creating personal tab
Creating personal tab
You can edit any tab online and save it as your Personal.

You can edit, replace or remove any tab part or add personal notes – all changes will be seen only by you.

Personal tabs can be accessed anytime from any device, even offline.
Learn more »
comments
print report bad tab
21 comments total. Showing first comments.
0 reply
the piper 1,413 Oct 06, 2006 12:43 PM

wow these people suck ass at guitar. power chords arent that hard

-1 reply
The Spoon 165 Oct 06, 2006 03:30 PM

woah no verse?!? the vers is like the best part of the song

0 reply
Maiden_Rule 78 Oct 07, 2006 02:39 AM

No your right power chords arent hard at all, and yeah I do suck at guitar, but how bout instead of jsut saying its shit, how about telling me why its wrong?? cause to me that sounds fine. And other guy yeah Im sorry but I do suck at guitar so couldnt make it out.

guest
You may want to rate the tab now too:
select rating
Wanna post a correction for this tab? Suggest correction