Oops, an error
Loading. Please wait.

House Of Wolves tab

version 2
version 2

Whole song

Interactive

69,043 views 99 this week
36 commentsread comments
1 2 3 4 5
x 97
add to favorites
×
Save as Personal and add changes to this tab that will be seen only by you. Learn more ›
×
You can save this tab as Personal to edit and correct it or add notes. All changes will be seen only by you. Learn more »
launch autoscroll
font size
0
reset
how to read this tab
guitar tuner
edit
Autoscroll
slow
fast
+/-
esc
set tempo
stop
Author
Difficulty
intermediate
[Intro]

(PICKSLIDES)


[1]
e|---------------------------------|
B|---------------------------------|
G|---------------------------------|
D|-9-x-77-x-5-x-4-xxx-99-7-x-5-x-4-|
A|-7-x-55-x-3-x-2-xxx-77-5-x-3-x-2-|
E|---------------------------------|

[2]
e|---------------------------------|
B|---------------------------------|
G|---------------------------------|
D|-9-x-77-x-5-x-4-xxx-99-7-x-5-x-4-|
A|-7-x-55-x-3-x-2-xxx-77-5-x-3-x-2-|
E|---------------------------------|

[1]
e|---------------------------------|
B|---------------------------------|
G|---------------------------------|
D|-9-x-77-x-5-x-4-xxx-99-7-x-5-x-4-|
A|-7-x-55-x-3-x-2-xxx-77-5-x-3-x-2-|
E|---------------------------------|
 
[2]
e|---------------------------------|
B|---------------------------------|
G|-9-x-11-x-12-x-11~---------------|
D|--------------------99-7-x-5-x-4-|
A|-7-x-9--x-10-x-9~---77-5-x-3-x-2-|
E|---------------------------------|


[Verse 1]

[1]
e|--------------------------------------------------------|
B|--------------------------------------------------------|
G|--------------------------------------------------------|
D|-2~----------------------2~-----------------------------|
A|-2~----------------------2~-----------------------------|
E|-0~----------------------0~-----------------------------|
 
[2]
e|--------------------------------------------------------|
B|-------------------8~-------------------------8~-----8~-|
G|-9~~------------------9~-------------------------9~--9~-|
D|-9~~---------------------9~-----------------------9~----|
A|-7~~---------------------7~-----------------------7-----|
E|--------------------------------------------------------|

   " I know a thing about contrition
     'Cause I got enough to say
     And I'll be grantin' your permission
     Cause you haven't got a prayer



[1] - Play near bridge & mute quickly. Play on the offbeat

e|-7---7---7---7---7---7---7---7---7---7---7---7---7---7-|
B|-8---8---8---8---8---8---8---8---8---8---8---8---8---8-|
G|-9---9---9---9---9---9---9---9---9---9---9---9---9---9-|
D|-------------------------------------------------------|
A|-------------------------------------------------------|
E|-------------------------------------------------------|
 
[2]|
e|-------------------------------------------------------|
B|-----------------8~---------------8~-------------------|
G|----------------------9~----------9~-------------------|
D|-9~-------------------------9~----9~-------------------|
A|-7~-------------------------7~----7~-------------------|
E|-------------------------------------------------------|

   " I said, hey hallelujah
     Well come on, sing the praise
     Let the spirit come on through ya
     We got innocence for days

         
[Pre-Chorus]

[1]
e|------------------------|
B|------------------------|
G|-4444-4/5~-----5/7~--8~-|
D|-4444-4/5~-----5/7~--8~-|
A|-2222-2/3~-----3/5~--6~-|
E|------------------------|
 | |
[2]|
e|------------------------|
B|------------------------|
G|-4444-4/5~-----5/7~--8~-|
D|-4444-4/5~-----5/7~--8~-|
A|-2222-2/3~-----3/5~--6~-|
E|------------------------|

   " Well I think I’m gonna burn in hell
     Everybody burn the house right down

         
[Chorus]

[1]
e|-------------------|-------------------|-------------------/
B|-------------------|-------------------|-------------------/
G|-9-9-9-9-9-9-9-9-7-|-5-5-5-5-5-5-5-5-5-|-------------------/
D|-9-9-9-9-9-9-9-9-7-|-5-5-5-5-5-5-5-5-5-|-5-5-5-5-5-5-5-5-5-/
A|-7-7-7-7-7-7-7-7-5-|-3-3-3-3-3-3-3-3-3-|-5-5-5-5-5-5-5-5-5-/
E|-------------------|-------------------|-3-3-3-3-3-3-3-3-3-/
 | |
[2]|
e|-------------------|-------------------|-------------------/
B|-------------------|-------------------|-------------------/
G|-9--11/12--11/9--7-|-9--11/12--11/9--7-|-9--11/12--11/9--7-/
D|-------------------|-------------------|-------------------/
A|-7--9 /10--9 /7--5-|-7--9 /10--9 /7--5-|-7--9 /10--9 /7--5-/
E|-------------------|-------------------|-------------------/
   
    "She says well, what I wanna say
     Tell me I’m an angel /

    "Tell me I’m a bad man, Kick me like a slave
     Tell me I’m an angel //


[1]
e|/-------------------|--|
B|/-------------------|--|
G|/-4-4-4-4-4-4-4-4-4-|--|
D|/-4-4-4-4-4-4-4-4-4-|--|
A|/-2-2-2-2-2-2-2-2-2-|X2|
E|/-------------------|--|
 | /
[2]/
e|/-------------------|--|
B|/-------------------|--|
G|/-8--11/12--11/9--7-|--|
D|/-------------------|--|
A|/-6--9 /10--9 /7--5-|X2|
E|/-------------------|--|


   " /  Take this to my grave
     // Take this to my grave


[Verse 2]

(PICKSLIDES)


[1]
e|--------------------------------------------------------|
B|--------------------------------------------------------|
G|--------------------------------------------------------|
D|-2~----------------------2~-----------------------------|
A|-2~----------------------2~-----------------------------|
E|-0~----------------------0~-----------------------------|
 | |
[2]|
e|--------------------------------------------------------|
B|-------------------8~-------------------------8~-----8~-|
G|-9~~------------------9~-------------------------9~--9~-|
D|-9~~---------------------9~-----------------------9~----|
A|-7~~---------------------7~-----------------------7-----|
E|--------------------------------------------------------|

   " Well a ring around the ambulance
     Like I never gave a care
     I said, choir boys surround you
     It's a compliment, I swear



[1]
e|-7---7---7---7---7---7---7---7---7---7---7---7---7---7-|
B|-8---8---8---8---8---8---7---7---8---8---8---8---8---8-|
G|-9---9---9---9---9---9---8---8---9---9---9---9---9---9-|
D|-------------------------------------------------------|
A|-------------------------------------------------------|
E|-------------------------------------------------------|
 | |
[2]|
e|-------------------------------------------------------|
B|-----------------8~---------------8~-------------------|
G|----------------------9~----------9~-------------------|
D|-9~-------------------------9~----9~-------------------|
A|-7~-------------------------7~----7~-------------------|
E|-------------------------------------------------------|

   " I said, ashes to ashes, we all fall down
     I wanna hear you sing the praise
     I said, ashes to ashes, we all fall down
     We got innocence for days

         
[Pre-Chorus]

[1]
e|------------------------|
B|------------------------|
G|-4444-4/5~-----5/7~--8~-|
D|-4444-4/5~-----5/7~--8~-|
A|-2222-2/3~-----3/5~--6~-|
E|------------------------|
 | |
[2]|
e|------------------------|
B|------------------------|
G|-4444-4/5~-----5/7~--8~-|
D|-4444-4/5~-----5/7~--8~-|
A|-2222-2/3~-----3/5~--6~-|
E|------------------------|

   " Well I think I’m gonna burn in hell
     Everybody burn the house right down


[1]
e|-------------------|-------------------|-------------------/
B|-------------------|-------------------|-------------------/
G|-9-9-9-9-9-9-9-9-7-|-5-5-5-5-5-5-5-5-5-|-------------------/
D|-9-9-9-9-9-9-9-9-7-|-5-5-5-5-5-5-5-5-5-|-5-5-5-5-5-5-5-5-5-/
A|-7-7-7-7-7-7-7-7-5-|-3-3-3-3-3-3-3-3-3-|-5-5-5-5-5-5-5-5-5-/
E|-------------------|-------------------|-3-3-3-3-3-3-3-3-3-/
 | |
[2]|
e|-------------------|-------------------|-------------------/
B|-------------------|-------------------|-------------------/
G|-9--11/12--11/9--7-|-9--11/12--11/9--7-|-9--11/12--11/9--7-/
D|-------------------|-------------------|-------------------/
A|-7--9 /10--9 /7--5-|-7--9 /10--9 /7--5-|-7--9 /10--9 /7--5-/
E|-------------------|-------------------|-------------------/
   
    "She says well, what I wanna say
     Tell me I’m an angel /

    "Tell me I’m a bad man, Kick me like a slave
     Tell me I’m an angel //


[1]
e|/-------------------|--|
B|/-------------------|--|
G|/-4-4-4-4-4-4-4-4-4-|--|
D|/-4-4-4-4-4-4-4-4-4-|--|
A|/-2-2-2-2-2-2-2-2-2-|X2|
E|/-------------------|--|
 | /
[2]/
e|/-------------------|--|
B|/-------------------|--|
G|/-8--11/12--11/9--7-|--|
D|/-------------------|--|
A|/-6--9 /10--9 /7--5-|X2|
E|/-------------------|--|


   " /  Take this to my grave
     // Take this to my grave

         
[Interlude]

e|---------------------------------------|
B|---------------------------------------|
G|---------------------------------------|
D|-2---5/7--2---5/7--2---5/7--2---5/7--2-|
A|-2-X-5/7--2-X-5/7--2-X-5/7--2-X-5/7--2-|
E|-0-X-3/5--0-X-3/5--0-X-3/5--0-X-3/5--0-|
    
   " / "


   " You better run like the devil,
     Cause they’re never gonna leave you alone

e|---------------------|
B|---------------------|
G|---------------------|
D|-2-X-5/7--2-X-5/7--2-|
A|-2-X-5/7--2-X-5/7--2-|
E|-0-X-3/5--0-X-3/5--0-|
  

 

   " better hide ‘em in the alley
     Cause they’re never gonna find you a home

e|---------------------|
B|---------------------|
G|-444-7/9--444-7/9--9-|
D|-444-7/9--444-7/9--9-|
A|-222-5/7--222-5/7--7-|
E|---------------------|



e|--------------------------------------|
B|--------------------------------------|
G|-9--------4~--5~--2-4--2-4--2-4--2-4--|
D|-9-7------4~--5~--2-4--2-4--2-4--2-4--|
A|-7-7------2~--3~--0-2--0-2--0-2--0-2--|
E|---5----------------------------------|
 | |
e|--------------------------------------|
B|--------------------------------------|
G|----------5*--------------------------|
D|----------5*--------------------------|
A|--------------------------------------|
E|--------------------------------------|

   " And as the blood runs down the walls
     You see me creepin' up these halls

     We're bad motherfuckers
     We're bad motherfuckers

         
[Pre-Chorus]

[1]
e|------------------------|
B|------------------------|
G|-4444-4/5~-----5/7~--8~-|
D|-4444-4/5~-----5/7~--8~-|
A|-2222-2/3~-----3/5~--6~-|
E|------------------------|
 | |
[2]|
e|------------------------|
B|------------------------|
G|-4444-4/5~-----5/7~--8~-|
D|-4444-4/5~-----5/7~--8~-|
A|-2222-2/3~-----3/5~--6~-|
E|------------------------|

   " Well I think I’m gonna burn in hell
     Everybody burn the house right down


[Chorus Outro]


[1]
e|-------------------|-------------------|-------------------/
B|-------------------|-------------------|-------------------/
G|-9-9-9-9-9-9-9-9-7-|-5-5-5-5-5-5-5-5-5-|-------------------/
D|-9-9-9-9-9-9-9-9-7-|-5-5-5-5-5-5-5-5-5-|-5-5-5-5-5-5-5-5-5-/
A|-7-7-7-7-7-7-7-7-5-|-3-3-3-3-3-3-3-3-3-|-5-5-5-5-5-5-5-5-5-/
E|-------------------|-------------------|-3-3-3-3-3-3-3-3-3-/
 | |
[2]|
e|-------------------|-------------------|-------------------/
B|-------------------|-------------------|-------------------/
G|-9--11/12--11/9--7-|-9--11/12--11/9--7-|-9--11/12--11/9--7-/
D|-------------------|-------------------|-------------------/
A|-7--9 /10--9 /7--5-|-7--9 /10--9 /7--5-|-7--9 /10--9 /7--5-/
E|-------------------|-------------------|-------------------/
   
    "Well I should say, what I wanna say
     Tell me I’m an angel /

    "Tell me I’m a bad man, Kick me like a slave
     Tell me I’m an angel //


[1]
e|/-------------------|--|
B|/-------------------|--|
G|/-4-4-4-4-4-4-4-4-4-|--|
D|/-4-4-4-4-4-4-4-4-4-|--|
A|/-2-2-2-2-2-2-2-2-2-|X2|
E|/-------------------|--|
 | /
[2]/
e|/-------------------|--|
B|/-------------------|--|
G|/-8--11/12--11/9--7-|--|
D|/-------------------|--|
A|/-6--9 /10--9 /7--5-|X2|
E|/-------------------|--|


   " /  Take this to my grave
     // Take this to my grave


[Outro Solo]



NOTE - Not 100% correct, just the general jist of what's going on

     - Use excessive amounts Wah

     - Guitar 1 plays chorus chords underneath

     E                                              C 
e|-------------------------------------------------------------------------|
B|-----------------------------15^(17)---12h15p12--------------------------|
G|-14^(16)-14^(16)--14^(16)p12--------------------h14-16p14p12-12-12-12h14-|
D|-------------------------------------------------------------------------|
A|-------------------------------------------------------------------------|
E|-------------------------------------------------------------------------|

              G                              B
e|-------------------------------------------------------------------------|
B|-------------------------------------------------------------------------|
G|-12h14-12-12h14p11-11h12-11-------------------------12h14p12-------------|
D|----------------------------h14-14h16p14-14~~-12h14----------14p12-14~~--|
A|-------------------------------------------------------------------------|
E|-------------------------------------------------------------------------|

                  E                          C
e|-------------------------------------------------------------------------|
B|-----------------------------------------------------------12h13-15^(17)-|
G|--------------12h14p12-11h12p11-12h14p12----------12h14p12---------------|
D|-14~-12h14p12----------------------------12h14p12------------------------|
A|-------------------------------------------------------------------------|
E|-------------------------------------------------------------------------|

     G                                     B
e|-------------------12-14^(15)-14p12h14-12-14^(15)14^(15)--/14^(15)r14~~--|
B|-13-15^(17)15^(17)-------------------------------------------------------|
G|-------------------------------------------------------------------------|
D|-------------------------------------------------------------------------|
A|-------------------------------------------------------------------------|
E|-------------------------------------------------------------------------|

   " Tell me I’m a bad man, bad man… man
     Tell me I’m a bad man, bad man… man



[1]
e|--------------------------------------------------------------------|
B|--------------------------------------------------------------------|
G|--------------------------------------------------------------------|
D|-9-x-77-x-5-x-4-xxx-99-7-x-5-x-4-xx-9-x-77-x-5-x-4-xxx-99-7-x-5-x-4-|
A|-7-x-55-x-3-x-2-xxx-77-5-x-3-x-2-xx-7-x-55-x-3-x-2-xxx-77-5-x-3-x-2-|
E|--------------------------------------------------------------------|
 | |
[2]|
e|-12------(12)-------15-----(15)------19------(19)-----(19)----------|
B|-15^(17)~~15^(17)~~-18^(20)~18^(20)~-22^(24)~~22^(24)~~22^(24)~~~---|
G|--------------------------------------------------------------------|
D|--------------------------------------------------------------------|
A|--------------------------------------------------------------------|
E|--------------------------------------------------------------------|



[1]
e|---|
B|---|
G|---|
D|-2-|
A|-2-|
E|-0-|
 | |
[2]|
e|---|
B|---|
G|---|
D|-2-|
A|-2-|
E|-0-|



[1] - Guitar One
[2] - Guitar Two

**********************************************************************************

| x   - Mute (in the case of this tab, mute & play for a percussive sound)
| h   - Hammer on
| p   - Pull off
|^(n) - Bend to fret 'n'
|(n)r - Realease bend from fret 'n'
| ~   - vibrato (this is also used to show where to let chords ring)
| /   - Slide to
| n*  - Natural harmonic at fret 'n'
 
**********************************************************************************
Suggest correction
Creating personal tab
Creating personal tab
You can edit any tab online and save it as your Personal.

You can edit, replace or remove any tab part or add personal notes – all changes will be seen only by you.

Personal tabs can be accessed anytime from any device, even offline.
Learn more »
comments
print report bad tab
36 comments total. Showing first comments.
0 reply
f1f2 774 Oct 27, 2006 01:58 AM

nice tab Mathamology!!
haha i just submitted the whole tab for the album, and it's currently pending. 5 stars!

+1 reply
XxfreakyteddyxX 53 Oct 28, 2006 12:17 PM

i think you're tab is near perfect :) here's your *****

0 reply
Smidge128 10 Nov 10, 2006 07:10 AM

I have some corrections on lyrics. . .

" I know a thing about contrition
'Cause I got enough to say

guest
You may want to rate the tab now too:
select rating
Wanna post a correction for this tab? Suggest correction