Oops, an error
Loading. Please wait.

House Of Wolves bass

version 3
version 3

Interactive

2,526 views 3 this week
2 commentsread comments
1 2 3 4 5
x 11
add to favorites
×
Save as Personal and add changes to this tab that will be seen only by you. Learn more ›
×
You can save this tab as Personal to edit and correct it or add notes. All changes will be seen only by you. Learn more »
launch autoscroll
font size
0
reset
guitar tuner
edit
Autoscroll
slow
fast
+/-
esc
set tempo
stop
Author
Intro -- REST

Bass Enters
G|--------------------------------------|X2
D|--------------------------------------|
A|--7--7--5--5--------------------------|
E|--------------8-8---7-77--------------|

G|--------------------------------------|
D|--------------------------------------|
A|--7--7--9--9--10-10---2-22------------|
E|--------------------------------------|

G|--------------------------------------|
D|--------------------------------------|
A|--7--7--5--5--------------------------|
E|--------------8-8---7-77--------------|

you'll have to listen to the song to get a feel for the rythmn,
its a hard one to get across on a tab

Verse
G|--------------------------------------------------|X2
D|--------------------------------------------------|
A|--------------3-3-3--3-3--------------2-2-2--2-2--|
E|--0-0-0--0-0--------------3-3-3--3-3--------------|

i like to mix it up a bit with a little, end the phrase with a E|--3--2-
again, up to you!

Verse Pt.2 the jazzy part
G|-----------------------------------------------|X2
D|----2------------------------------------------|
A|------0-2-3-2-0---3-2-0---2-0------------------|
E|--0-------------3-------3-----3-2--------------|

Pre-Chorus
G|------------------------------------------|
D|------------------------------------------|
A|--2-2-2-2-2---2-3~-------3-5~-----5-6~----|
E|------------------------------------------|

Chorus
G|----------------------------------------------------------------------|X2
D|----------------------------------------------------------------------|
A|--7-7-7-7-7-7-7-5--3-3-3-3-3-3-3-2------------------------------------|
E|------------------------------------3-3-3-3-3-3-3-5--7-7-7-7-7-7-7-5--|

Post Chorus
G|--------------------------------------|X2
D|--------------------------------------|
A|--7--7--5--5--------------------------|
E|--------------8-8---7-77--------------|

G|--------------------------------------|
D|--------------------------------------|
A|--7--7--9--9--10-10---2-22------------|
E|--------------------------------------|

G|--------------------------------------|
D|--------------------------------------|
A|--7--7--5--5--------------------------|
E|--------------8-8---7-77--------------|

2nd Verse
G|--------------------------------------------------|X2
D|--------------------------------------------------|
A|--------------3-3-3--3-3--------------2-2-2--2-2--|
E|--0-0-0--0-0--------------3-3-3--3-3--------------|


2nd Verse Pt.2 the jazzy part
G|-----------------------------------------------|X2
D|----2------------------------------------------|
A|------0-2-3-2-0---3-2-0---2-0------------------|
E|--0-------------3-------3-----3-2--------------|

2nd Pre-Chorus
G|------------------------------------------|
D|------------------------------------------|
A|--2-2-2-2-2---2-3~-------3-5~-----5-6~----|
E|------------------------------------------|

2nd Chorus (1919 is 19-19 not 1-9-1-9)
G|----------------------------------------------------------------------|
D|----------------------------------------------------------------------|
A|--7-7-7-7-7-7-7-5--3-3-3-3-3-3-3-2------------------------------------|
E|------------------------------------3-3-3-3-3-3-3-5--7-7-7-7-7-7-7-5--|

G|------------------------------------------------------------------------------|
D|------------------------------------------------------------------------------|
A|--7-7-7-7-7-7-7-5--3-3-3-3-3-3-3-2--------------------------------------------|
E|------------------------------------3-3-3-3-3-3-3-5--7-7-7-7-7-7-7/19191919\--|

Bridge
G|--------------------------------------------|
D|--------------------------------------------|
A|--------------------------------------------|
E|--0000-3-5--0000-3-5--0000-3-5--0000-3-5-0--|

G|------------------------|
D|------------------------|
A|------------------------|
E|--0000-3-5--0000-3-5-0--|

G|----------------------|
D|-------0-2-------0-2--|
A|--2222------2222------|
E|----------------------|

G|-------------------------------------------|
D|--2~----2----------------------------------|
A|----------0~------2~--3~--2-5-2-5-2-5-2-5--|
E|-------------------------------------------|

Final Chorus
G|----------------------------------------------------------------------|
D|----------------------------------------------------------------------|
A|--7-7-7-7-7-7-7-5--3-3-3-3-3-3-3-2------------------------------------|
E|------------------------------------3-3-3-3-3-3-3-5--7-7-7-7-7-7-7-5--|

G|----------------------------------------------------------------------|
D|--------------4-5-----------------------------------------------------|
A|--7-7-7-7-7-7------3-3-3-3-3-3-3-2------------------------------------|
E|------------------------------------3-3-3-3-3-3-3-5--7-7-7-7-7-7-7-5--|

Final Chorus Pt 2 (bad bad man)
G|-------------------------------------------------------------------|X2
D|-------------------------------------------------------------------|
A|------------------2-3-3-3-3-3-3-2---------------0-2-2-2-2-2-2-2-2--|
E|--0-0-0-0-0-0-0-0-----------------3-3-3-3-3-3-3--------------------|

Outro
G|--------------------------------------|X2
D|--------------------------------------|
A|--7--7--5--5--------------------------|
E|--------------8-8---7-77--------------|

G|--------------------------------------|
D|--------------------------------------|
A|--7--7--9--9--10-10---2-22------------|
E|--------------------------------------|

G|--------------------------------------|
D|--------------------------------------|
A|--7--7--5--5----------------7---------|
E|--------------8-10-8--7-7-7-----------|

            
            
Suggest correction
Creating personal tab
Creating personal tab
You can edit any tab online and save it as your Personal.

You can edit, replace or remove any tab part or add personal notes – all changes will be seen only by you.

Personal tabs can be accessed anytime from any device, even offline.
Learn more »
comments
print report bad tab
2 comments total.
0 reply
Dagi 30 May 07, 2009 05:30 AM

This is a great tab! i really dont know why it was rated one star... 5*

0 reply
swimmingman88 10 Oct 23, 2012 09:24 AM

I think this is the first tab that i've seen that might be completely correct. I need to try it as soon as I get home for college break. Good job!

guest
You may want to rate the tab now too:
select rating
Wanna post a correction for this tab? Suggest correction