Oops, an error
Loading. Please wait.

House Of Wolves tab

version 3
version 3

Whole song

Interactive

26,775 views 42 this week
1 commentread comment
1 2 3 4 5
x 3
add to favorites
×
Save as Personal and add changes to this tab that will be seen only by you. Learn more ›
×
You can save this tab as Personal to edit and correct it or add notes. All changes will be seen only by you. Learn more »
launch autoscroll
font size
0
reset
how to read this tab
guitar tuner
edit
Autoscroll
slow
fast
+/-
esc
set tempo
stop
Author
Difficulty
This is my first tab, i'm pretty sure it is right.
standard tuning (ebgdae)
im tabbing both ray and frankies guitars seperately because its easier to understand.
Im working out Rays solo at the end and im nearly there so when i get it perfect i will 
it.

here goes

Intro

Guitar 1 (Ray)
e|-----------|-------------------|
b|-----------|-------------------|
g|--9-9-7-7--|--5-5---4----------|     x2
d|--9-9-7-7--|--5-5---4----------|
a|--7-7-5-5--|--3-3---2----------|
e|-----------|-------------------|

on on third time play time play this then fourth time go back to the main intro riff

e|------------|------------------|
b|------------|------------------|
g|-9-9-11-11--|--12-12---11------|
d|-x-x- x--x--|---x--x----x------|
a|-7-7--9--9--|--10-10----9------|
e|------------|------------------|

Verse:

e|----------------|--------------|--------------|--------------|
b|----------------|--------------|--------------|-(7)----------|
g|-9~~~-----------|--------------|--------------|----(7)-------|
d|-9~~~(let ring)-|--------------|--------------|-------(7)----| x2
a|-7~~~-----------|--------------|--------------|-----------(7)|
e|----------------|--------------|--------------|--------------|

e|----7--------7-|----7-------7-|----7-------7-|----7-------7-|
b|----8--------8-|----8-------8-|----8-------8-|----7-------7-|
g|----9--------9-|----9-------9-|----9-------9-|----8-------8-|
d|----9--------9-|----9-------9-|----9-------9-|----9-------9-| x2
a|----7--------7-|----7-------7-|----7-------7-|----9-------9-|
e|---------------|--------------|--------------|----7-------7-|

Pre Chorus:

e|---------------|--------------|--------------|-----------------|
b|---------------|--------------|--------------|-----------------|
g|-4-5-----------|--------------|-5-7----------|-7-8-------------|
d|-4-5-----------|--------------|-5-7----------|-7-8-------------|
a|-2-3-----------|--------------|-3-5----------|-5-6-------------|
e|---------------|--------------|--------------|-----------------|


Chorus:

e|-------------|------------------|    e|-------------|---------------|
b|-------------|------------------|    b|-------------|---------------|
g|-9--9--9--9--|-11--12--11--9-7--|    g|-8--8--8--8--|-12--11--9--7--|
d|-x--x--x--x--|--x---x---x--x-x--| x3 d|-x--x--x--x--|--x---x--x--x--|
a|-7--7--7--7--|--9--10---9--7-5--|    a|-6--6--6--6--|-10---9--7--5--|
e|-------------|------------------|    e|-------------|---------------|

repeat the chorus 2 times

then verse
     pre chorus
     chorus

Bridge:

e|----------------|
b|----------------|
g|----------------|
d|-2--2--5--5-7---| x4  (after that have 2 bars break)
a|-2--2--5--5-7---|
e|-0--0--3--3-5---|

e|----------------|
b|----------------|
g|----------------|
d|-2--2--5--5-7---| x2  ( again after this have 2 bars break)
a|-2--2--5--5-7---|
e|-0--0--3--3-5---|

e|----------------|-------|----|----------|-------|
b|----------------|-------|----|----------|-------|
g|----------7--9--|-------|----|----------|-------|
d|-9-9-9-9--5--9--|-2-----|----|-2-5-7----|-9-----|
a|-9-9-9-9--5--7--|-2-----|----|-2-5-7----|-9-----|
e|-7-7-7-7--------|-0-----|----|-0-3-5----|-7-----|

e|-----------------|-----------------|-----------------|
b|-----------------|-----------------|-----------------|
g|-----------------|-----------------|-----------------|
d|-9-9-9-9-9-9-9-9-|-9-9-9-9-9-9-9-9-|-7-9-7-9-7-9-7-9-|
a|-9-9-9-9-9-9-9-9-|-9-9-9-9-9-9-9-9-|-7-9-7-9-7-9-7-9-|
e|-7-7-7-7-7-7-7-7-|-7-7-7-7-7-7-7-7-|-5-7-5-7-5-7-5-7-|

chorus
rays solo
outro (same as intro)

Guitar 2 (Frank)

Intro:

e|-----------|-------------------|
b|-----------|-------------------|
g|--9-9-7-7--|--5-5---4----------|     x4
d|--9-9-7-7--|--5-5---4----------|
a|--7-7-5-5--|--3-3---2----------|
e|-----------|-------------------|

Verse: (frank doesn't play anything for first 8 bars of the verse)

e|----7--------7-|----7-------7-|----7-------7-|----7-------7-|
b|----8--------8-|----8-------8-|----8-------8-|----7-------7-|
g|----9--------9-|----9-------9-|----9-------9-|----8-------8-|
d|----9--------9-|----9-------9-|----9-------9-|----9-------9-| x2
a|----7--------7-|----7-------7-|----7-------7-|----9-------9-|
e|---------------|--------------|--------------|----7-------7-|

Pre chorus:


Pre Chorus:

e|---------------|--------------|--------------|-----------------|
b|---------------|--------------|--------------|-----------------|
g|-4-5-----------|--------------|-5-7----------|-7-8-------------|
d|-4-5-----------|--------------|-5-7----------|-7-8-------------|
a|-2-3-----------|--------------|-3-5----------|-5-6-------------|
e|---------------|--------------|--------------|-----------------|

Chorus:

e|-----------------|-------------------------|-----------------|
b|-----------------|-------------------------|-----------------|
g|-9-9-9-9-9-9-9-9-|-------------------------|-----------------|
d|-9-9-9-9-9-9-9-9-|-10-10-10-10-10-10-10-10-|-5-5-5-5-5-5-5-5-|
a|-7-7-7-7-7-7-7-7-|-10-10-10-10-10-10-10-10-|-5-5-5-5-5-5-5-5-|
e|-----------------|--8--8--8--8--8--8--8--8-|-3-3-3-3-3-3-3-3-|

e|-----------------|
b|-----------------|
g|-----------------|
d|-9-9-9-9-9-9-9-9-|    x4
a|-9-9-9-9-9-9-9-9-|
e|-7-7-7-7-7-7-7-7-|

verse
pre chorus
chorus
Bridge: (same as rays)
chorus
rays solo (frank plays the chorus through again during the solo)
outro (same as intro)

well there you go if u want to say anything just leave a comment

enjoy!!!!

            
            
Suggest correction
Creating personal tab
Creating personal tab
You can edit any tab online and save it as your Personal.

You can edit, replace or remove any tab part or add personal notes – all changes will be seen only by you.

Personal tabs can be accessed anytime from any device, even offline.
Learn more »
Give kudos to tab author, rate the tab!
1 2 3 4 5
comments
print report bad tab
1 comment total.
0 reply
Guitarmaster12 10 Nov 20, 2006 01:38 PM

its good but your missing the solo. 4 stars

guest
You may want to rate the tab now too:
select rating
Wanna post a correction for this tab? Suggest correction