Oops, an error
Loading. Please wait.
We have an official I Dont Love You tab made by UG professional guitarists. Check out the tab »
×
59,852 views 24 this week
9 commentsread comments
1 2 3 4 5
x 5
add to favorites
×
Save as Personal and add changes to this tab that will be seen only by you. Learn more ›
×
You can save this tab as Personal to edit and correct it or add notes. All changes will be seen only by you. Learn more »
launch autoscroll
font size
0
reset
how to read this tab
guitar tuner
backing track
0:00
0:00
edit
Autoscroll
slow
fast
+/-
esc
set tempo
stop
Author
(Guitar 1) Ray Toro (i’m guessing)
e|12--12--12--12--12--12--12—-12--12--12--12--12--13--13--15—-15---|
B|13--13--13--13--13--13--13--13--13--13--13--13--13--13--13—-13------|
G|--12--12--12--12--12--12--12--12--12--12--12--12--12--12--12--12----|
D|--------------------------------------------------------------------|
A|--------------------------------------------------------------------|
E|--------------------------------------------------------------------|

(Guitar 2) Frank Iero
e|----------------------------------------------------------------|
B|----------------------------------------------------------------|
G|-----------------------------------55555555555555555------------|
D|-----------------------------------55555555555555555------------|
A|-----------------------------------33333333333333333------------|
E|----------------------------------------------------------------|

(Guitar 1)
e|15--15--15--15--13--13--12—-12--12--12--12--12--10--10--10—-10---|
B|13--13--13--13--13--13--13--13--13--13--13--13--13--13--13—-13---|
G|--14--14--14--14--14--14--14--14--12--12--12--12--12--12--12--12-|
D|-----------------------------------------------------------------|
A|-----------------------------------------------------------------|
E|-----------------------------------------------------------------|

(Guitar 2)
e|----------------------------------------------------------------|
B|----------------------------------------------------------------|
G|----------------------------------------------------------------|
D|7777777777777777-----------------5555555555555555---------------|
A|7777777777777777-----------------5555555555555555---------------|
E|5555555555555555-----------------3333333333333333---------------|

(Guitar 1)
e|12--12--12--12--10--10--10--10----8-----------------------------|
B|12--12--12--12--12--12--12--12----8-----------------------------|
G|--10--10--10--10--12--12--12--12—-9-----------------------------|
D|----------------------------------------------------------------|
A|----------------------------------------------------------------|
E|----------------------------------------------------------------|

(Guitar 2)
e|----------------------------------------------------------------|
B|----------------------------------------------------------------|
G|------------------5~~~~-----------------------------------------|
D|33333333-55555555-3~~~~-----------------------------------------|
A|33333333-55555555-3~~~~-----------------------------------------|
E|11111111-33333333-----------------------------------------------|


************************************

| ~  Vibrato

************************************
Suggest correction
Creating personal tab
Creating personal tab
You can edit any tab online and save it as your Personal.

You can edit, replace or remove any tab part or add personal notes – all changes will be seen only by you.

Personal tabs can be accessed anytime from any device, even offline.
Learn more »
comments
print report bad tab
9 comments total. Showing first comments.
0 reply
f1f2 774 Sep 20, 2006 03:19 AM

next time when tabbing a song from an upcoming album pls pls pls put the word "Live" next to the title.,.,. cheers

0 reply
Xx-scarlett-xX 10 Apr 09, 2007 04:37 AM

please retype this as i cnt make out what i'm meant to be playing-all over the place!

0 reply
encore-black 46 Apr 22, 2007 12:43 AM

It's okayt I guess I got the tune now xxx

guest
You may want to rate the tab now too:
select rating
Wanna post a correction for this tab? Suggest correction