Oops, an error
Loading. Please wait.

I Dont Love You Live Tab

55 views 1 this week
no commentswrite comment
1 2 3 4 5
3 more votes to show rating
add to favorites
launch autoscroll
font size
0
reset
how to read this tab
guitar tuner
Autoscroll
slow
fast
+/-
esc
set tempo
stop
Help us to improve Ultimate-Guitar.com Take our survey!
×
Author
Difficulty
intermediate
About this tab version
Live in Mexico version, just the solo. Was this info helpful? Yes No
Live in Mexico


[Solo]

e|---------------------------------------------------------------------------|
B|-10--10--10--10--10--------------------------------------------------------|
G|-12b-12b-12b-12b-12b-12-10-9~-------------10p9-----------------------------|
D|------------------------------9/12~-10h12------9/12-9h12~------------------|
A|---------------------------------------------------------------------------|
E|---------------------------------------------------------------------------|

e|---------------------------------------------------------------------------|
B|---------------------------------------------------------------------------|
G|-10~-12b-10-12-10-9h10p9-7-7b-5~--7p5-----7p5--------7~-10h12p10-9-7/-7~---|
D|------------------------------------7PM------7PM-7PM---------------------5~|
A|---------------------------------------------------------------------------|
E|---------------------------------------------------------------------------|

e|---------------------------------------------------------------------------|
B|---------------------------------------------------------------------------|
G|--------------5---5~-------------------------------------------------------|
D|-x-x-5h7--x-x---7----------------------------------------------------------|
A|---------------------------------------------------------------------------|
E|---------------------------------------------------------------------------|

************************************

| x   Dead note
| h   Hammer-on
| p   Pull-off
| t   Tapping
| b   Bend
| /   Slide up
| ~   Vibrato
| PM  Palm mute

************************************
Suggest correction
Give kudos to tab author, rate the tab!
1 2 3 4 5
comments
print report bad tab
guest
You may want to rate the tab now too:
select rating
Wanna post a correction for this tab? Suggest correction