Oops, an error
Loading. Please wait.

I Dont Love You Tab

version 1
version 1
512,796 views 1,179 this week
162 commentsread comments
1 2 3 4 5
excellent!
x 140
add to favorites
launch autoscroll
font size
0
reset
how to read this tab
guitar tuner
Autoscroll
slow
fast
+/-
esc
set tempo
stop
Help us to improve Ultimate-Guitar.com Take our survey!
×
Author
TRACK NO. 6 – I DON’T LOVE YOU

Ins.:
        Gtr 1 – Frank Iero (right speaker)
        Gtr 2 – Ray Toro (left speaker)
        Gtr 3 - ??? (overdubbed)


[INTRO]

Gtr 2
e|--12----12----12----12-----|--12----12----12----12-----|
B|--13----13----13----13-----|--13----13----13----13-----|
G|-----12----12----12----12--|-----12----12----12----12--|
D|---------------------------|---------------------------|
A|---------------------------|---------------------------|
E|---------------------------|---------------------------|

Gtr 1
e|-----------------------------------|-----------------------------------|
B|-----------------------------------|-----------------------------------|
G|--5-5-5-5-5-5-5-5-5-5-5-5-5-5-5-5--|-----------------------------------|
D|--5-5-5-5-5-5-5-5-5-5-5-5-5-5-5-5--|--7-7-7-7-7-7-7-7-7-7-7-7-7-7-7-7--|
A|--3-3-3-3-3-3-3-3-3-3-3-3-3-3-3-3--|--7-7-7-7-7-7-7-7-7-7-7-7-7-7-7-7--|
E|-----------------------------------|--5-5-5-5-5-5-5-5-5-5-5-5-5-5-5-5--|

e|-----------------------------------|-----------------------------------|
B|-----------------------------------|-----------------------------------|
G|-----------------------------------|-----------------------------------|
D|--5-5-5-5-5-5-5-5-5-5-5-5-5-5-5-5--|--3-3-3-3-3-3-3-3-5-5-5-5-5-5-5-5--|
A|--5-5-5-5-5-5-5-5-5-5-5-5-5-5-5-5--|--3-3-3-3-3-3-3-3-5-5-5-5-5-5-5-5--|
E|--3-3-3-3-3-3-3-3-3-3-3-3-3-3-3-3--|--1-1-1-1-1-1-1-1-3-3-3-3-3-3-3-3--|

Gtr 2
e|--12----12----12----12----13----13----12----12-----|
B|--13----13----13----13----13----13----13----13-----|
G|-----12----12----12----12----12----12----12----12--|
D|---------------------------------------------------|
A|---------------------------------------------------|
E|---------------------------------------------------|

e|--12----12----12----12----13----13----12----12-----|
B|--13----13----13----13----13----13----13----13-----|
G|-----14----14----14----14----14----14----14----14--|
D|---------------------------------------------------|
A|---------------------------------------------------|
E|---------------------------------------------------|

e|--10----10----10----10----10----10----10----10-----|
B|--13----13----13----13----12----12----13----13-----|
G|-----12----12----12----12----12----12----12----12--|
D|---------------------------------------------------|
A|---------------------------------------------------|
E|---------------------------------------------------|

e|--12----12----12----12----10----10-----------------|
B|--------------------------------------12----13-----|
G|-----12----12----12----12----12----12----12----12--|
D|---------------------------------------------------|
A|---------------------------------------------------|
E|---------------------------------------------------|


[VERSE 1]

Gtr 1
e|--0~~--0~~--3~~--0~~-------|
B|--1~~--1~~--3~~--1~~-------|
G|--0~~--2~~--0~~--0~~--xxx--|
D|--2~~--2~~--0~~--2~~--xxx--|
A|--3~~--0~~--2~~--3~~--xxx--|
E|------------3~~------------|

^^^ According to the music video, just strum these chords.

Gtr 2
e|------------------------|----------------------|
B|------------------------|----------------------|
G|------------------------|----------------------|
D|--/3~-2--0--2--2-0------|--3-5--2~--0-2-3-2~~--|
A|-------------------3~~--|----------------------|
E|------------------------|----------------------|

e|--------------|--------------------------|
B|--------------|--------------------------|
G|--------------|---------------------xxx--|
D|------2~------|-------2-3~-5~~--3-2-xxx--|
A|--3-5----5~~--|--2-3~---------------xxx--|
E|--------------|--------------------------|

Gtr 1
e|---------------------------------------------------|
B|---------------------------------------------------|
G|--10-99-7-x-7-7/9\7-5-5-10-10--9-7-x-7/9\7-5-5-12--|
D|---x-xx-x-x-x-x-x-x-x-x--x--x--x-x-x-x-x-x-x-x--x--|
A|---8-77-5-x-5-5/7\5-3-3--8--8--7-5-x-5-7-5-3-3-10--|
E|---------------------------------------------------|

e|-----------------------------------------------|
B|-----------------------------------------------|
G|--12-1010-7-x-7-7/9\7-5--1212-10-xx-7/9\7-5-5--|
D|---x--x-x-x-x-x-x-x-x-x---x-x--x-xx-x-x-x-x-x--|
A|--10--8-8-5-x-5-5/7\5-3--1010--8-xx-5/7\5-3-3--|
E|-----------------------------------------------|

e|-----------------------|
B|-----------------------|
G|--5-5-5-5-5-7-7-7-4~~--|
D|--x-x-x-x-x-x-x-x-x----|
A|--3-3-3-3-3-5-5-5-2~~--|
E|-----------------------|

e|-----------------------------------------------------|
B|-----------------------------------------------------|
G|--5/7-7-7-7/9-9-9-9\7-7-7-7/101010-9~~--7-7/9\7-5~~--|
D|--x-x-x-x-x-x-x-x-x-x-x-x-x--x-x-x-x----x-x-x-x-x----|
A|--3/5-5-5-5/7-7-7-7\5-5-5-5/-8-8-8-7~~--5-5/7\5-3~~--|
E|-----------------------------------------------------|

Gtr 2
e|-----------------------------------|-----------------------------------|
B|-----------------------------------|-----------------------------------|
G|--5-5-5-5-5-5-5-5-5-5-5-5-5-5-5-5--|-----------------------------------|
D|--5-5-5-5-5-5-5-5-5-5-5-5-5-5-5-5--|--7-7-7-7-7-7-7-7-7-7-7-7-7-7-7-7--|
A|--3-3-3-3-3-3-3-3-3-3-3-3-3-3-3-3--|--7-7-7-7-7-7-7-7-7-7-7-7-7-7-7-7--|
E|-----------------------------------|--5-5-5-5-5-5-5-5-5-5-5-5-5-5-5-5--|

e|-----------------------------------|-----------------------------------|
B|-----------------------------------|-----------------------------------|
G|-----------------------------------|--5-5-5-5-5-5-5-5-5-5-5-5-5-5-5-5--|
D|--5-5-5-5-5-5-5-5-5-5-5-5-5-5-5-5--|--5-5-5-5-5-5-5-5-5-5-5-5-5-5-5-5--|
A|--5-5-5-5-5-5-5-5-5-5-5-5-5-5-5-5--|--3-3-3-3-3-3-3-3-3-3-3-3-3-3-3-3--|
E|--3-3-3-3-3-3-3-3-3-3-3-3-3-3-3-3--|-----------------------------------|


[REFRAIN]

Gtr 1
e|--------------------------|-------------------------|
B|--------------------------|-------------------------|
G|--10~--9-7-7~--5--7--10~--|--9--7--9--7-5~~--5-7-9--|
D|---x---x-x-x---x--x---x---|--x--x--x--x-x----x-x-x--|
A|---8~--7-5-5~--3--5---8~--|--7--5--7--5-3~~--3-5-7--|
E|--------------------------|-------------------------|

e|--------------------------------|------------------|
B|--------------------------------|------------------|
G|--9-7-5~~--5-7-9-7-5-4~~-4-7-7--|--5~~----(0-5-7)--|
D|--x-x-x----x-x-x-x-x-x---x-x-x--|--x---------------|
A|--7-5-3~~--3-5-7-5-3-2~~-2-5-5--|--3~~-------------|
E|--------------------------------|------------------|
Gtr 2
e|-----------------------------------|-----------------------------------|
B|-----------------------------------|-----------------------------------|
G|-----------------------------------|------------------7-7-7-7-7-7-7-7--|
D|--3-3-3-3-3-3-3-3-5-5-5-5-6-6-6-6--|--7-7-7-7-2-2-2-2-7-7-7-7-7-7-7-7--|
A|--3-3-3-3-3-3-3-3-5-5-5-5-7-7-7-7--|--7-7-7-7-2-2-2-2-5-5-5-5-5-5-5-5--|
E|--1-1-1-1-1-1-1-1-3-3-3-3-4-4-4-4--|--5-5-5-5-0-0-0-0------------------|

e|-----------------------------------|---------------|
B|-----------------------------------|---------------|
G|-----------------------------------|--5~~----------|
D|--3-3-3-3-3-3-3-3-5-5-5-5-5-5-5-5--|--5~~----------|
A|--3-3-3-3-3-3-3-3-5-5-5-5-5-5-5-5--|--3~~----------|
E|--1-1-1-1-1-1-1-1-3-3-3-3-3-3-3-3--|---------------|


[VERSE 2]

Gtr 1
e|--------------------------------------------------------------|
B|--------------------------------------------------------------|
G|--5-0-5--7-5-0-5-7-9-9-7-5-7^(9)r7-5--------------------------|
D|-------------------------------------7~~--5-3-2---5-3---------|
A|------------------------------------------------3-----3-5-----|
E|-----------------------------------------------------------3--|

e|------------------------|
B|------------------------|
G|-------------------xxx--|
D|--------2-3~--5~~--xxx--|
A|--2-3~-------------xxx--|
E|------------------------|

Gtr 2
e|-------------------------------------------------------------------|
B|--------5-------5-------5-------5-------5-------5-------3-------3--|
G|----5-------5-------5-------5-------5-------5-------5-------5------|
D|--5---5---5---5---5---5---5---5---5---5---5---5---5---5---5---5----|
A|-------------------------------------------------------------------|
E|-------------------------------------------------------------------|

e|-------------------------------------------------------------------|
B|--------3-------3-------3-------3-------5-------5-------5----------|
G|----4-------4-------4-------4-------5-------5-------5---------xxx--|
D|--5---5---5---5---5---5---5---5---5---5---5---5---5---5---5~--xxx--|
A|--------------------------------------------------------------xxx--|
E|-------------------------------------------------------------------|

Gtr 1
e|---------------------------------------------------|
B|---------------------------------------------------|
G|--10-99-7-x-7-7/9\7-5-5-10-10--9-7-x-7/9\7-5-5-12--|
D|---x-xx-x-x-x-x-x-x-x-x--x--x--x-x-x-x-x-x-x-x--x--|
A|---8-77-5-x-5-5/7\5-3-3--8--8--7-5-x-5-7-5-3-3-10--|
E|---------------------------------------------------|

e|-----------------------------------------------|
B|-----------------------------------------------|
G|--12-1010-7-x-7-7/9\7-5--1212-10-xx-7/9\7-5-5--|
D|---x--x-x-x-x-x-x-x-x-x---x-x--x-xx-x-x-x-x-x--|
A|--10--8-8-5-x-5-5/7\5-3--1010--8-xx-5/7\5-3-3--|
E|-----------------------------------------------|

e|--------------------------|
B|--------------------------|
G|--5-5-5-5-5-7-7-7-4/12~~--|
D|--x-x-x-x-x-x-x-x-x--x----|
A|--3-3-3-3-3-5-5-5-2/10~~--|
E|--------------------------|

e|-----------------------------------------------------|
B|-----------------------------------------------------|
G|--10\9-9-9-9\7-7-7-7/9-9-9-9/101010-9-9-9-7-7-7-5~~--|
D|---x-x-x-x-x-x-x-x-x-x-x-x-x--x-x-x-x-x-x-x-x-x-x----|
A|---8\7-7-7-7\5-5-5-5/7-7-7-7/-8-8-8-7-7-7-5-5-5-3~~--|
E|-----------------------------------------------------|

Gtr 2
e|-----------------------------------|-----------------------------------|
B|-----------------------------------|-----------------------------------|
G|--5-5-5-5-5-5-5-5-5-5-5-5-5-5-5-5--|-----------------------------------|
D|--5-5-5-5-5-5-5-5-5-5-5-5-5-5-5-5--|--7-7-7-7-7-7-7-7-7-7-7-7-7-7-7-7--|
A|--3-3-3-3-3-3-3-3-3-3-3-3-3-3-3-3--|--7-7-7-7-7-7-7-7-7-7-7-7-7-7-7-7--|
E|-----------------------------------|--5-5-5-5-5-5-5-5-5-5-5-5-5-5-5-5--|

e|-----------------------------------|-----------------------------------|
B|-----------------------------------|-----------------------------------|
G|-----------------------------------|--5-5-5-5-5-5-5-5-5-5-5-5-5-5-5-5--|
D|--5-5-5-5-5-5-5-5-5-5-5-5-5-5-5-5--|--5-5-5-5-5-5-5-5-5-5-5-5-5-5-5-5--|
A|--5-5-5-5-5-5-5-5-5-5-5-5-5-5-5-5--|--3-3-3-3-3-3-3-3-3-3-3-3-3-3-3-3--|
E|--3-3-3-3-3-3-3-3-3-3-3-3-3-3-3-3--|-----------------------------------|


[REFRAIN]

Gtr 1
e|--------------------------|-------------------------|
B|--------------------------|-------------------------|
G|--10~--9-7-7~--5--7--10~--|--9--7--9--7-5~~--5-7-9--|
D|---x---x-x-x---x--x---x---|--x--x--x--x-x----x-x-x--|
A|---8~--7-5-5~--3--5---8~--|--7--5--7--5-3~~--3-5-7--|
E|--------------------------|-------------------------|

e|--------------------------------|------------------|
B|--------------------------------|------------------|
G|--9-7-5~~--5-7-9-7-5-4~~-4-7-7--|--5~~----(0-5-7)--|
D|--x-x-x----x-x-x-x-x-x---x-x-x--|--x---------------|
A|--7-5-3~~--3-5-7-5-3-2~~-2-5-5--|--3~~-------------|
E|--------------------------------|------------------|
Gtr 2
e|-----------------------------------|-----------------------------------|
B|-----------------------------------|-----------------------------------|
G|-----------------------------------|------------------7-7-7-7-7-7-7-7--|
D|--3-3-3-3-3-3-3-3-5-5-5-5-6-6-6-6--|--7-7-7-7-2-2-2-2-7-7-7-7-7-7-7-7--|
A|--3-3-3-3-3-3-3-3-5-5-5-5-7-7-7-7--|--7-7-7-7-2-2-2-2-5-5-5-5-5-5-5-5--|
E|--1-1-1-1-1-1-1-1-3-3-3-3-4-4-4-4--|--5-5-5-5-0-0-0-0------------------|

e|-----------------------------------|---------------|
B|-----------------------------------|---------------|
G|-----------------------------------|--5~~----------|
D|--3-3-3-3-3-3-3-3-5-5-5-5-5-5-5-5--|--5~~----------|
A|--3-3-3-3-3-3-3-3-5-5-5-5-5-5-5-5--|--3~~----------|
E|--1-1-1-1-1-1-1-1-3-3-3-3-3-3-3-3--|---------------|

Just before the solo, Gtr 1 MAY play a harmonic on the 5th fret on the G string.  Listen 
the song if you want to hear how is that played. :)


[SOLO]

Gtr 1
e|-----------------------------------|------------------------------|
B|-----------------------------------|------------------------------|
G|--7-7-7-7-7-7-7-7------------------|--5---------------------------|
D|--7-7-7-7-7-7-7-7-5-5-5-5-5-5-5-5--|--5--5-5-5-7-7-7-7-7-7-7-7-7--|
A|--5-5-5-5-5-5-5-5-5-5-5-5-5-5-5-5--|--3--3-2-2-7-7-7-7-7-7-7-7-7--|
E|------------------3-3-3-3-3-3-3-3--|-----------5-5-5-5-5-5-5-5-5--|

e|-----------------------------------|-------|
B|-----------------------------------|-------|
G|-----------------------------------|--5~~--|
D|--3-3-3-3-3-3-3-3-5-5-5-5-5-5-5-5--|--5~~--|
A|--3-3-3-3-3-3-3-3-5-5-5-5-5-5-5-5--|--3~~--|
E|--1-1-1-1-1-1-1-1-3-3-3-3-3-3-3-3--|-------|

Gtr 2
e|-----------------------------------------------------------|
B|--10------10------10------10------10------13------13-------|
G|--12^(14)-12^(14)-12^(14)-12^(14)-12^(14)-16^(17)-16^(17)--|
D|-----------------------------------------------------------|
A|-----------------------------------------------------------|
E|-----------------------------------------------------------|

e|-------------------------------------------------------------------|
B|--12------12------12------12------12------12------12------12p10p8--|
G|--14^(16)-14^(16)-14^(16)-14^(16)-14^(16)-14^(16)-14^(16)----------|
D|-------------------------------------------------------------------|
A|-------------------------------------------------------------------|
E|-------------------------------------------------------------------|

e|---------------------------------------------------------------------------|
B|--8-------8-------6h8-9-9-12-10------10-10-12h13-10~-12h13-15^(17)~-15-13--|
G|--10^(12)-10^(12)------------12^(14)---------------------------------------|
D|---------------------------------------------------------------------------|
A|---------------------------------------------------------------------------|
E|---------------------------------------------------------------------------|

e|-------------------15----13----12----13----12--------------10-----------|
B|--15~-15-13-13--13----13----13----12----12----12-15-12~-12----12\10-10--|
G|------------------------------------------------------------------------|
D|------------------------------------------------------------------------|
A|------------------------------------------------------------------------|
E|------------------------------------------------------------------------|

e|------------------|
B|--10~~-10\8--8~~--|
G|------------------|
D|------------------|
A|------------------|
E|------------------|


[SOFT CHORUS]

Gtr 1
e|-------------------------------------------|
B|-------------------------------------------|
G|-------------------------------------------|
D|--/7~~--5-3-2--0--------3--2--0--2--0------|
A|------------------3--5----------------3~~--|
E|-------------------------------------------|

e|----------------------------------|
B|----------------------------------|
G|----------------------------------|
D|------2-5--3~------2--------------|
A|--3-5----------3-5----3-2--2-3-5--|
E|----------------------------------|


[FINAL REFRAIN]

Gtr 1
e|---------------------------|-----------------------------------|
B|---------------------------|-----------------------------------|
G|--12~-10~-9-9-9-9-7-7-7-7--|--5-5-5-5-5-5-5-5-7-7-7-7-7-7-7-7--|
D|---x---x~-x-x-x-x-x-x-x-x--|--x-x-x-x-x-x-x-x-x-x-x-x-x-x-x-x--|
A|--10~--8~-7-7-7-7-5-5-5-5--|--3-3-3-3-3-3-3-3-5-5-5-5-5-5-5-5--|
E|---------------------------|-----------------------------------|
Gtr 2
e|---------------------------|-----------------------------------|
B|---------------------------|-----------------------------------|
G|--5~~-4~~------------------|-----------------------------------|
D|--5~~-5~~-7-7-7-7-5-5-5-5--|--3-3-3-3-3-3-3-3-5-5-5-5-5-5-5-5--|
A|--3~~-2~~-7-7-7-7-5-5-5-5--|--3-3-3-3-3-3-3-3-5-5-5-5-5-5-5-5--|
E|----------5-5-5-5-3-3-3-3--|--1-1-1-1-1-1-1-1-3-3-3-3-3-3-3-3--|

Gtr 3’s timing here is complicated, so I’ll add the lyrics :)

Gtr 3 (start on Gtr 2’s F Chord ^^^)
e|--12----12----12----12----10----10----10----10-----|
B|--13----13----13----13----13----13----12----12-----|
G|-----12----12----12----12----12----12----12----12--|
D|---------------------------------------------------|
A|--you....-----like-I-loved-you--------yes---ter----|
E|---------------------------------------------------|


There is a variation for Gtr 3 on the second repeat:

Gtr 3
e|--12----12----13----13----12----12----10----10-----|
B|--13----13----13----13----13----13----13----13-----|
G|-----12----12----12----12----12----12----12----12--|
D|---------------------------------------------------|
A|--day........-------------------------I-don’t------|
E|---------------------------------------------------|

e|--12----12----12----12----10----10----10----10-----|
B|--13----13----13----13----13----13----12----13-----|
G|-----12----12----12----12----12----12----12----12--|
D|---------------------------------------------------|
A|--love--you---like--I-----loved-you---yes---ter----|
E|---------------------------------------------------|

End on:

Gtr 1
e|-------|
B|-------|
G|--5~~--|
D|--5~~--|
A|--3~~--|
E|-------|

Gtr 2
e|-------|
B|-------|
G|--5~~--|
D|--5~~--|
A|--3~~--|
E|-------|

Gtr 3
e|--12~--|
B|--13~--|
G|--12~--|
D|-------|
A|-------|
E|-------|


************************************

| x    Dead note
| h    Hammer-on
| p    Pull-off
| /    Slide up
| \    Slide down
| ~    Vibrato
| ^(n) Bend

************************************
Suggest correction
comments
print report bad tab
162 comments total. Showing first comments.
0 reply
|think| 10 wrote on October 28 2006, 04:43 am

nice tab! Please tab also Sleep!! 5 Stars!

0 reply
geminivenom 10 wrote on October 28 2006, 07:52 am

very nice!

0 reply
mike0123 10 wrote on November 5 2006, 09:14 am

the verses are an octave lower for the lead part

guest
You may want to rate the tab now too:
select rating
Wanna post a correction for this tab? Suggest correction