Oops, an error
Loading. Please wait.

I Never Told You What I Do For A Living tab

version 3
version 3

Whole song

Interactive

1,067 views 3 this week
4 commentsread comments
1 2 3 4 5
x 3
add to favorites
×
Save as Personal and add changes to this tab that will be seen only by you. Learn more ›
×
You can save this tab as Personal to edit and correct it or add notes. All changes will be seen only by you. Learn more »
launch autoscroll
font size
0
reset
how to read this tab
guitar tuner
edit
Autoscroll
slow
fast
+/-
esc
set tempo
stop
Author
Difficulty
I Never Told You What I Do For a Living - My Chemical Romance

Tabbed by: BdonGraffiti
Email: SprtXplrer@aol.com

Tuning: Standard

Hi.

Intro: Guitar1 (Ray)
e|----------------|
B|----------------|
G|----------------|
D|----------------|
A|----------------|
E|-7~--0~--3~--2~-|

Intro: Guitar2 (Frank)  
e|-------------| [pickslide so happens to sound like the 7th fret on the
B|-------------| B String..it's just a pickslide, don't get it mixed up]
G|-------------|
D|-/---------/-|
A|-/pickslide/-|
E|-/---------/-|

Verse 1: Guitar1 (Ray)this is barely heard, because you usually hear Frank's guitar during the verse.
e|-----------------------------------------------|       |-------|
B|-----------------------------------------------|       |-------|
G|-4-6-4-6-7-7-9-11-9-7-11-12-11-9-11-7-9-7-9-11-|2x then|-------|
D|-x-x-x-x-x-x-x--x-x-x--x--x--x-x--x-x-x-x-x--x-|       |-4-4-2-|
A|-2-4-2-4-5-5-7--9-7-5--9-10--9-7--9-5-7-5-7--9-|       |-4-4-2-|
E|-----------------------------------------------|       |-2-2-0-|
                                                         PM. . .

Verse 1: Guitar2 (Frank)                                    
                                                    
e|-----------------------------------------------|       |-------|
B|-----------------------------------------------|       |-------|
G|-4-6-7-6-4-4-6-9-7-6-11-12-14-12-11-9-11-6-6-7-|2x then|-------|
D|-x-x-x-x-x-x-x-x-x-x--x--x--x--x--x-x--x-x-x-x-|       |-4-4-2-|
A|-2-4-5-4-2-2-4-7-5-4--9-10-12-10--9-7--9-4-4-5-|       |-4-4-2-|
E|-----------------------------------------------|       |-2-2-0-|
                                                         PM. . .

Chorus Thingy or whatever u wanna call it:Guitar1 (Ray)
e|-------------------------------------------------------------|
B|-------------------------------------------------------------|
G|-4-4444444444444---------------------------------------------|2x
D|-4-4444444444444-2-22222222222222-5-55555555555555-2-2-4-4-4-|
A|-2-2222222222222-2-22222222222222-5-55555555555555-2-2-4-4-4-|
E|-----------------0-00000000000000-3-33333333333333-0-0-2-2-2-|
PM   .............   ..............   .............. 

Chorus or whatever: Guitar2 (Frank)
e|---------------------------------------------------------------------|
B|---------------------------------------------------------------------|
G|-4-44444444----------------------------------------------------------|2x
D|-4-44444444--------2-22222222---------5-55555555---------------------|
A|-2-22222222-2h4-2-02-22222222-5h7-5-4-5-55555555-7h9-7-5-------------|
E|-------------------0-00000000---------3-33333333---------5-7-10-9-10-|
PM   ........          ........           ........

"Only goes so far": Guitar1 (Ray)
e|--------------------------|
B|---------------7~---------|
G|--------0--0--0-----------|
D|-5~4~--4--4--4---4-7-9-11-|
A|-5~4~-2--0-------4-7-x--x-|
E|-3~2~-------3----2-5-7--9-|

"only goes so far": Guitar2 (Frank)
e|---------------------<12>----------|
B|----------------<12>---------------|
G|---6~------------------------------|
D|-5~6~-<5>---<7>-----------4-8-9-11-|
A|-5~4~----<4>--------------x-x-x--x-|
E|-3~-----------------------2-6-7--9-|

Repeat Everything so far
then

Bridge thingy: Guitar 1 (Ray)
part1              part2
e|-------|   |----------------------------------------------------  -----|
B|-------|   |-/14------------------------------------------------  -----|
G|-------|19x|----------------------------------------------------2x-----|
D|-9-999-|   |----9-9999-9999-999-12-11-7-9-9999-9999-999-14-12-11  -222-|
A|-9-999-|   |----9-9999-9999-999-12-11-7-9-9999-9999-999-14-12-11  -222-|
E|-7-777-|   |----7-7777-7777-777-10--9-5-7-7777-7777-777-12-10--9  -000-|
PM . ...

Brige thingy: Guitar 2 (Frank) [Part2 same as Guitar1]
Part 1 (harmonics)
e|----------------------------------------|
B|------------<5>-<7>---------------------|
G|-------------------<5>-<7>-------<5>----|2x
D|--------------------------<9>-<7>---<7>-|
A|----------------------------------------|
E|-/pickslide/----------------------------|

"And we'll all":Guitar1 (Ray)
e|------------------------------------|
B|---------------------------------7~-|
G|---6-7-6-----------------0--0--0----|
D|-5-6-7-6-5---------5-8--4--4--4-----|
A|-5-4-5-4-5-7-9-7-6-5-8-2--0---------|
E|-3-------3---------3-6-------3------|

"and we'll all":Guitar2 (Frank) same as guitar1 but ends with harmonics
e|------------<12>-|
B|------------<12>-|
G|-----------------|
D|-<5>----<7>------|
A|-----<4>---------|
E|-----------------|

"And never again":Guitar 1 (Ray)
e|---------------------------------  --------------|
B|---------------------------------  --------------|
G|---------------------------------  --------------|
D|---------------------------------4x-999999999999-|
A|-5555-44-555-44-55555-44-5555-44-  -999999999999-|
E|-3333-33-555-55-77777-77-3333-33-  -777777777777-|
                                    PM............             

"And never again":Guitar2 (Frank)
e|----------------------------------------------------------|
B|----------------------------------------------------------|
G|-77777777666666664444442444444447777779966666644444442464-|2x
D|-xxxxxxxxxxxxxxxxxxxxxxxxxxxxxxxxxxxxxxxxxxxxxxxxxxxxxxxx-|
A|-55555555444444442222220222222225555557744444422222220242-|
E|----------------------------------------------------------|

"I tried..":Guitar1 (Ray) and Guitar 2(Frank)
e|------------------------------------------|
B|------------------------------------------|
G|------------------------------------------|mostly this until the ending
D|-999999999999-555555-777777-999999-555555-|
A|-999999999999-555555-777777-999999-555555-|
E|-777777777777-333333-555555-777777-333333-|
PM ............

During the "i tried" part 1 of the guitars enters with
e|---------|
B|---------|
G|-6-7-7-4-| a couple of times
D|---------|
A|-4-5-4-2-|
E|---------|

Guitar 2 plays this guring "i tried"
e|-----17-------15-------14-------12---|       |-141514-|
B|-1415--15-1415--15-1415--15-1415--15-|       |--------|
G|-------------------------------------|3x then|--------|
D|-------------------------------------|       |--------|
A|-------------------------------------|       |--------|
E|-------------------------------------|       |--------|

Ending: Guitar1 (Ray)
e|--------------------------|
B|--------------------------|
G|--------------------------|
D|-5-2-3~-2-3-2---5-5-7-3-5-|
A|--------------5-----------|
E|--------------------------|


and the end is simple..just mess around with the volme, etc on your amp.

ta-da!

| /  slide up
| \  slide down
| h  hammer-on
| p  pull-off
| ~  vibrato
| <> harmonic
| x  Mute note
| .  palm mute(PM)
Suggest correction
Creating personal tab
Creating personal tab
You can edit any tab online and save it as your Personal.

You can edit, replace or remove any tab part or add personal notes – all changes will be seen only by you.

Personal tabs can be accessed anytime from any device, even offline.
Learn more »
Give kudos to tab author, rate the tab!
1 2 3 4 5
comments
print report bad tab
4 comments total. Showing first comments.
0 reply
mcr_01_fan 697 Dec 13, 2005 05:30 AM

Pretty good 3 stars ***

0 reply
mcr_01_fan 697 Dec 14, 2005 05:31 AM

weli meant four, I'd give i tabout a 4.4 but since that ant be done i shall jus round it up to five good job

0 reply
Guitarmaster12 10 Sep 28, 2006 04:12 PM

are the harmonics pinch or just regular?

guest
You may want to rate the tab now too:
select rating
Wanna post a correction for this tab? Suggest correction