Oops, an error
Loading. Please wait.
We have an official Im Not Okay I Promise tab made by UG professional guitarists. Check out the tab »
×
408 views 3 this week
3 commentsread comments
1 2 3 4 5
1 last vote to show rating
add to favorites
×
Save as Personal and add changes to this tab that will be seen only by you. Learn more ›
×
You can save this tab as Personal to edit and correct it or add notes. All changes will be seen only by you. Learn more »
launch autoscroll
font size
0
reset
how to read this tab
guitar tuner
backing track
0:00
0:00
edit
Autoscroll
slow
fast
+/-
esc
set tempo
stop
Author
Difficulty
I've seen many tabs of this song that aren't correct, and it bothered me a lot. So here 
is the right tab that
Ray plays. Enjoy! It all starts at 1:52 on the track.
Here is me playing the whole tab in motion. https://www.youtube.com/watch?v=pqF3KHxbDII

Guitar One

This one is kinda easy, it harmonizes well but Ray did not make it to where the notes 
hamonize perfectly with
Guitar Two.

|----------------------------------------12----10-9----------------------------------------|
|--12b14--12b14--12b14--12-10-9-9-10----------------12b14--12b14--12-10-12-12/14--10-10-9--|
|------------------------------------9-9---------------------------------------------------|
|-------------------------------------------11---------------------------------------------|
|------------------------------------------------------------------------------------------|
|------------------------------------------------------------------------------------------|


|-----12---------12-14-12-10-12-10-9-10-9----9-----------------------------12-10-9-------|
|--10----10-9-10--------------------------12---12b14--12-----------9-10-12---------12-10-|
|-------------------------------------------------------------9-11-----------------------|
|--------------------------------------------------------9-11----------------------------|
|----------------------------------------------------------------------------------------|
|----------------------------------------------------------------------------------------|

Guitar Two

A easily heard harmony in the Studio track. Some notes seem like they would not go 
together as they are not
harmonic opposites to Guitar One but trust me it's how it goes.

|--------------------------------------------16--------------------------------------------|
|--15b17--15b17--15b17--15-14-12-12-14-------------12-15b17--15b17--15b17--15-14-15-15/17--|
|--------------------------------------13-13----14-----------------------------------------|
|------------------------------------------------------------------------------------------|
|------------------------------------------------------------------------------------------|
|------------------------------------------------------------------------------------------|

|------------------------------------------------------------12-14-16-14-12-------|
|-----14-14-12-14-12-14-12-14-12--------------------12-14-15----------------15-14-|
|--------------------------------13b14-13b14-13-13-14-----------------------------|
|---------------------------------------------------------------------------------|
|---------------------------------------------------------------------------------|
|---------------------------------------------------------------------------------|

Guitar Three

This one is kinda quiet but if you listen good enough in the song you can really hear Guitar Three.
Used to make the song fuller.

|---------------------------------------------------------------------------------------------------|
|---------------------------------------------------------------------------------------------------|
|--4b6-4b6-4b6-4-2-1-1-2-----------------------------------9-------9-7-6-4-6-4-2-4-2-1-2-1---1------|
|------------------------2-2-------2-4-6-7-9-9-7/9-7-7-6-7---7-6-7-------------------------4---4-2--|
|----------------------------5-4-5------------------------------------------------------------------|
|---------------------------------------------------------------------------------------------------|

|--------------------------|
|----------------5-3-2-----|
|----------1-2-4-------4-2-|
|------2-4-----------------|
|--2-4---------------------|
|--------------------------|

Rhythm Guitar

Do what you want with the basic chords but heres how it went when the song was in recording.

-------------------------------------------------------------------|
|------------------------------------------------------------------|
|------------------------------------------------------------------|
|----------9-9-9-9-------------------------------------------------|
|--9-9-9-9-7-7-7-7-7-7-7-7-2-2-7-7-7-7-7-7-7-7-7-7-4-4-4-4-2-2-4-4-|
|--7-7-7-7-5-5-5-5-4-4-4-4-0-0-4-4-5-5-5-5-4-4-4-4-2-2-2-2-0-0-2-2-|

|---------------------------------------|
|---------------------------------------|
|---------------------------------------|
|----------9-9-9-9----------------------|
|--9-9-9-9-7-7-7-7-7-7-7-7-2-2-7-7-7----|
|--7-7-7-7-5-5-5-5-4-4-4-4-0-0-4-4-5----|

palm mute that A power chord a lot now and thats the end of the sol0

            
            
Suggest correction
Creating personal tab
Creating personal tab
You can edit any tab online and save it as your Personal.

You can edit, replace or remove any tab part or add personal notes – all changes will be seen only by you.

Personal tabs can be accessed anytime from any device, even offline.
Learn more »
Give kudos to tab author, rate the tab!
1 2 3 4 5
comments
print report bad tab
3 comments total.
0 reply
joshuabuchalt 43 Jun 01, 2015 08:29 AM, edited on June 3 2015, 02:59 pm

My tab of my fav guitar solo cx

0 reply
joshuabuchalt 43 Feb 18, 2017 11:27 PM

this one is perfect

0 reply
joshuabuchalt 43 Feb 18, 2017 11:35 PM

you guys should make covers using this tab and showing me!

guest
You may want to rate the tab now too:
select rating
Wanna post a correction for this tab? Suggest correction