Oops, an error
Loading. Please wait.
We have an official Im Not Okay I Promise tab made by UG professional guitarists. Check out the tab »
×
710 views 1 this week
6 commentsread comments
1 2 3 4 5
2 more votes to show rating
add to favorites
×
Save as Personal and add changes to this tab that will be seen only by you. Learn more ›
×
You can save this tab as Personal to edit and correct it or add notes. All changes will be seen only by you. Learn more »
launch autoscroll
font size
0
reset
how to read this tab
guitar tuner
backing track
0:00
0:00
edit
Autoscroll
slow
fast
+/-
esc
set tempo
stop
Author
Difficulty
This is my tab for this solo that Ray Toro plays live, it is the only one I've seen on the internet
so I'm Posting it! Enjoy! Remember, this is the live version played in 2005!

Not the live version but heres my studio tab of it in motion harmony and all.
 https://www.youtube.com/watch?v=pqF3KHxbDII

Lead Only. Rhythm can be found in my Studio version tab.

|----------------------------------------12----10-9---------------------------------------|
|--12b14--12b14--12b14--12-10-9-9-10----------------12b14--12b14--12-10-12-12/14--10-10-9-|
|------------------------------------9-9--------------------------------------------------|
|-------------------------------------------11--------------------------------------------|
|-----------------------------------------------------------------------------------------|
|-----------------------------------------------------------------------------------------|

|-----12---------12-14-12-12-10-9-10-9----9---------------------------------12---|
|--10----10-9-10-----------------------12---12-10-12-10-9-10-9----9--------------|
|--------------------------------------------------------------11---11-10-9----9-|
|--------------------------------------------------------------------------------|
|--------------------------------------------------------------------------------|
|--------------------------------------------------------------------------------|

|--12-10-9-10-9----9------------------|
|---------------12---12-10-12-10-9-10-|
|-------------------------------------|
|-------------------------------------|
|-------------------------------------|
|-------------------------------------|
Suggest correction
Creating personal tab
Creating personal tab
You can edit any tab online and save it as your Personal.

You can edit, replace or remove any tab part or add personal notes – all changes will be seen only by you.

Personal tabs can be accessed anytime from any device, even offline.
Learn more »
Give kudos to tab author, rate the tab!
1 2 3 4 5
comments
print report bad tab
6 comments total. Showing first comments.
0 reply
mcrguitar2019 37 Mar 05, 2016 05:24 PM

this is really good! nice job. it's pretty impressive that you singled out ray's part as frank's is a similar volume. good job!

0 reply
joshuabuchalt 43 Feb 18, 2017 10:12 PM

i gotta edit it! i got a part wrong haha

0 reply
joshuabuchalt 43 Feb 18, 2017 10:12 PM

i gotta edit it! i got a part wrong haha

guest
You may want to rate the tab now too:
select rating
Wanna post a correction for this tab? Suggest correction