Oops, an error
Loading. Please wait.
We have an official Im Not Okay I Promise tab made by UG professional guitarists. Check out the tab »
×
172,207 views 339 this week
16 commentsread comments
1 2 3 4 5
x 72
add to favorites
launch autoscroll
font size
0
reset
how to read this tab
guitar tuner
backing track
0:00
0:00
Autoscroll
slow
fast
+/-
esc
set tempo
stop
Author
Difficulty
intermediate
------------------------------
   I'm Not Okay (I Promise)
------------------------------
You need to understand that there are two different sections to this tab. The first 
is for lead guitar which is played by Ray.  The second section is for the rythem guitar 
is played by Frank.  Any questions or comments feal free to e-mail me at belegalda1988@yahoo.com

Gtr I Ray: Standard Tuning (e,B,G,D,A,E)

[Intro I]

e:|---|
B:|---|
G:|-7-| Strum this chord 30 times
D:|-x-|
A:|-5-|
E:|---|


Intro II

[Chorus]

e:||-------------------------------------------------|
B:||-------------------------------------------------|
G:||-19-19-19-19-19-19-19-19/14-14-14-14-14-14-14-14/|
D:||-x--x--x--x--x--x--x--x-/x—-x--x--x--x--x--x--x-/|
A:||-17-17-17-17-17-17-17-17/12-12-12-12-12-12-12-12/|
E:||-------------------------------------------------|

e:|-------------------------------------------------||
B:|-------------------------------------------------||
G:|/12-12-12-12-12-12-12-12/11-11-11-11-11-11-11-11-||
D:|/x--x--x--x--x--x--x--x-/x--x--x--x--x--x--x--x--||
A:|/10-10-10-10-10-10-10-10/9—-9—-9--9--9--9--9--9--||
E:|-------------------------------------------------||

e:|-------------------------------------------------|
B:|-------------------------------------------------|
G:|-12-12-12-12-12-12-12-12\14-14-14-14-14-14-14-14/|
D:|-x-–x--x--x--x--x--x--x-\x--x--x--x--x—-x--x—x--/|
A:|-10-10-10-10-10-10-10-10\12-12-12-12-12-12-12-12/|
E:|-------------------------------------------------|

e:|---------------------------------|
b:|---------------------------------|
G:|/9-9-9-9-9-9-9-9-9-9-9-9-9-9-9-9-|
D:|/x-x-x-x-x-x-x-x-x-x-x-x-x-x-x-x-|
A:|/7-7-7-7-7-7-7-7-7-7-7-7-7-7-7-7-|
E:|---------------------------------|

e:|-------------------------------------------------|
B:|-------------------------------------------------|
G:|-12-12-12-12-12-12-12-12\14-14-14-14-14-14-14-14\|
D:|-x--x--x--x--x--x--x--x-\x--x--x—-x--x—-x--x--x-\|
A:|-10-10-10-10-10-10-10-10\12-12-12-12-12-12-12-12\|
E:|-------------------------------------------------|

e:|-------------------------------------------------|
B:|-------------------------------------------------|
G:|\16-16-16-16-16-16-16-16\18-18-18-18-18-18-18-18-|
D:|\x--x--x--x--x--x--x--x-\x--x--x--x--x--x--x--x--|
A:|\14-14-14-14-14-14-14-14\16-16-16-16-16-16-16-16-|
E:|-------------------------------------------------|


[Verse I]

e:|--------------------------------------------------------|
B:|--------------------------------------------------------|
G:|----7----7---7----7----7---7----6----6---6----7-6h7-6h7-|
D:|----7----7---7----7----7---7----7----7---7----7-7-7-7-7-|
A:|-55---55---5---55---55---5---55---55---5---55-----------|
E:|--------------------------------------------------------|
PM  **   **   *   **   **   *  **   **   *   **

e:|--------------------------------------------------------|
B:|--------------------------------------------------------|
G:|----7----7---7----7----7---7----6----6---6----7-6h7-6h7-|
D:|----7----7---7----7----7---7----7----7---7----7-7-7-7-7-|
A:|--------------------------------------------------------|
E:|-77---77---7---77---77---7---7----77---7---77-----------|
PM  **   **   *   **   **   *   *    **   *   **

e:|--------------------------------------------------------|
B:|--------------------------------------------------------|
G:|----7----7---7----7----7---7----6----6---6----7-6h7-6h7-|
D:|----7----7---7----7----7---7----7----7---7----7-7-7-7-7-|
A:|--------------------------------------------------------|
E:|-00---00---0---00---00---0---0----00---0---00-----------|
PM  **   **   *   **   **   *   *    **   *   **

e:|--------------------------------------------------------|
B:|--------------------------------------------------------|
G:|----7----7---7----7----7---7----6----6---6----7-6h7-6h7-|
D:|----7----7---7----7----7---7----7----7---7----7-7-7-7-7-|
A:|--------------------------------------------------------|
E:|-55---55---5---55---55---5---55---55---5---55-----------|
PM  **   **   *   **   **   *   **   **   *   **


[Chorus]

e:||-------------------------------------------------|
B:||-------------------------------------------------|
G:||-19-19-19-19-19-19-19-19/14-14-14-14-14-14-14-14/|
D:||-x--x--x--x--x--x--x--x-/x—-x--x--x--x--x--x--x-/|
A:||-17-17-17-17-17-17-17-17/12-12-12-12-12-12-12-12/|
E:||-------------------------------------------------|

e:|-------------------------------------------------||
B:|-------------------------------------------------||
G:|/12-12-12-12-12-12-12-12/11-11-11-11-11-11-11-11-||
D:|/x--x--x--x--x--x--x--x-/x--x--x--x--x--x--x--x--||
A:|/10-10-10-10-10-10-10-10/9—-9—-9--9--9--9--9--9--||
E:|-------------------------------------------------||

e:|-------------------------------------------------|
B:|-------------------------------------------------|
G:|-12-12-12-12-12-12-12-12\14-14-14-14-14-14-14-14/|
D:|-x-–x--x--x--x--x--x--x-\x--x--x--x--x—-x--x—x--/|
A:|-10-10-10-10-10-10-10-10\12-12-12-12-12-12-12-12/|
E:|-------------------------------------------------|

e:|---------------------------------|
b:|---------------------------------|
G:|/9-9-9-9-9-9-9-9-9-9-9-9-9-9-9-9-|
D:|/x-x-x-x-x-x-x-x-x-x-x-x-x-x-x-x-|
A:|/7-7-7-7-7-7-7-7-7-7-7-7-7-7-7-7-|
E:|---------------------------------|

e:|-------------------------------------------------|
B:|-------------------------------------------------|
G:|-12-12-12-12-12-12-12-12\14-14-14-14-14-14-14-14\|
D:|-x--x--x--x--x--x--x--x-\x--x--x—-x--x—-x--x--x-\|
A:|-10-10-10-10-10-10-10-10\12-12-12-12-12-12-12-12\|
E:|-------------------------------------------------|

e:|-------------------------------------------------|
B:|-------------------------------------------------|
G:|\16-16-16-16-16-16-16-16\18-18-18-18-18-18-18-18-|
D:|\x--x--x--x--x--x--x--x-\x--x--x--x--x--x--x--x--|
A:|\14-14-14-14-14-14-14-14\16-16-16-16-16-16-16-16-|
E:|-------------------------------------------------|


[Verse II]

e:|--------------------------------------------------------|
B:|--------------------------------------------------------|
G:|-----7---7-----9-7-6h7-6h7------7----7------9-7-6h7-6h7-|
D:|-----7---7-----7-7-7-7-7-7------7----7------7-7-7-7-7-7-|
A:|-55----5----55---------------55----5----55--------------|
E:|--------------------------------------------------------|
PM  **    *    **               **    *    **

e:|--------------------------------------------------------|
B:|--------------------------------------------------------|
G:|-----7---7-----9-7-6h7-6h7-------7---7------9-7-6h7-6h7-|
D:|-----7---7-----7-7-7-7-7-7-------7---7------7-7-7-7-7-7-|
A:|--------------------------------------------------------|
E:|-77—---7----77---------------77----7----77--------------|
PM  **    *    **               **   *    **

e:|--------------------------------------------------------|
B:|--------------------------------------------------------|
G:|-----7---7------9-7-6h7-6h7------7---7------9-7-6h7-6h7-|
D:|-----7---7------7-7-7-7-7-7------7---7------7-7-7-7-7-7-|
A:|--------------------------------------------------------|
E:|-00----0----00---------------00----0----00--------------|
PM  **    *    **               **    *    **

e:|--------------------------------------------------------|
B:|--------------------------------------------------------|
G:|-----7---7------9-7-6h7-6h7------7---7------9-7-6h7-6h7-|
D:|-----7---7------7-7-7-7-7-7------7---7------7-7-7-7-7-7-|
A:|--------------------------------------------------------|
E:|-55----5----55---------------55----5----55--------------|
PM  **    *    **               **    *    **


[Chorus]

e:||-------------------------------------------------|
B:||-------------------------------------------------|
G:||-19-19-19-19-19-19-19-19/14-14-14-14-14-14-14-14/|
D:||-x--x--x--x--x--x--x--x-/x—-x--x--x--x--x--x--x-/|
A:||-17-17-17-17-17-17-17-17/12-12-12-12-12-12-12-12/|
E:||-------------------------------------------------|

e:|-------------------------------------------------||
B:|-------------------------------------------------||
G:|/12-12-12-12-12-12-12-12/11-11-11-11-11-11-11-11-||
D:|/x--x--x--x--x--x--x--x-/x--x--x--x--x--x--x--x--||
A:|/10-10-10-10-10-10-10-10/9—-9—-9--9--9--9--9--9--||
E:|-------------------------------------------------||

e:|-------------------------------------------------|
B:|-------------------------------------------------|
G:|-12-12-12-12-12-12-12-12\14-14-14-14-14-14-14-14/|
D:|-x-–x--x--x--x--x--x--x-\x--x--x--x--x—-x--x—x--/|
A:|-10-10-10-10-10-10-10-10\12-12-12-12-12-12-12-12/|
E:|-------------------------------------------------|

e:|---------------------------------|
b:|---------------------------------|
G:|/9-9-9-9-9-9-9-9-9-9-9-9-9-9-9-9-|
D:|/x-x-x-x-x-x-x-x-x-x-x-x-x-x-x-x-|
A:|/7-7-7-7-7-7-7-7-7-7-7-7-7-7-7-7-|
E:|---------------------------------|

e:|-------------------------------------------------|
B:|-------------------------------------------------|
G:|-12-12-12-12-12-12-12-12\14-14-14-14-14-14-14-14\|
D:|-x--x--x--x--x--x--x--x-\x--x--x—-x--x—-x--x--x-\|
A:|-10-10-10-10-10-10-10-10\12-12-12-12-12-12-12-12\|
E:|-------------------------------------------------|

e:|-------------------------------------------------|
B:|-------------------------------------------------|
G:|\16-16-16-16-16-16-16-16\18-18-18-18-18-18-18-18-|
D:|\x--x--x--x--x--x--x--x-\x--x--x--x--x--x--x--x--|
A:|\14-14-14-14-14-14-14-14\16-16-16-16-16-16-16-16-|
E:|-------------------------------------------------|


[Before solo]

e:|----------|
B:|----------|
G:|----------|
D:|-11^13-11-|
A:|----------|
E:|----------|


[Solo]

e:|-------------------------------------------------------------------|
B:|---------------------------------12--------------------------------|
G:|-16^-16^-16^-14-13~-13h14-----------14-16-16^-16^-16^r-14-16-18-14-|
D:|--------------------------14~-14-----------------------------------|
A:|-------------------------------------------------------------------|
E:|-------------------------------------------------------------------|

e:|-------------------------|
B:|-------------------------|
G:|-14p13h14-16-14p13h14-16-|
D:|-------------------------|
A:|-------------------------|
E:|-------------------------|

e:|-------------------------------------------|
B:|-17\19-17-15p14h15p14-12h14p12-10-12^-12^r-|
G:|-------------------------------------------|
D:|-------------------------------------------|
A:|-------------------------------------------|
E:|-------------------------------------------|

e:|---------------------------------------------------|
B:|---------------------------------------------------|
G:|---------------------12h14h16--14h16h18--18p16p14~-|
D:|-----------12h14h16--------------------------------|
A:|-12h14h16------------------------------------------|
E:|---------------------------------------------------|


[After Solo]
e:|---|
B:|---|
G:|---|
D:|-7-| Repeat chord 48 times approx
A:|-7-|
E:|-5-|
PM  *


[Bridge Pt I]
 (Piano arranged for Gtr)
e:|-------5------------------|
B:|---------8-7-5-------7--5-|
G:|----7----------7----7--7--|
D:|---7------------7--7--7---|
A:|--5---------------5--5----|
E:|--------------------------|


[Bridge pt II]
e:|------------|
B:|------------|
G:|--4~~~~~~~~-|
D:|--4~~~~~~~~-|
A:|--2~~~~~~~~-|
E:|------------|

e:|-----------------------------|
B:|-----------------------------|
G:|-----------------------------|
D:|-----------------------------|
A:|-----------------------------|
E:|-////////Pick-Scrape\\\\\\\\-|

Both Gtrs are silent here
e:|------|
B:|------|
G:|------|
D:|--x---|
A:|----x-|
E:|------|

e:|------------------------|
B:|------------------------|
G:|------------------------|
D:|-2-2-2-2--7~~-777777777-|
A:|-2-2-2-2--7~~-777777777-|
E:|-0-0-0-0--5~~-555555555-|
PM               ********


[Chorus]

e:||-------------------------------------------------|
B:||-------------------------------------------------|
G:||-19-19-19-19-19-19-19-19/14-14-14-14-14-14-14-14/|
D:||-x--x--x--x--x--x--x--x-/x—-x--x--x--x--x--x--x-/|
A:||-17-17-17-17-17-17-17-17/12-12-12-12-12-12-12-12/|
E:||-------------------------------------------------|
e:|-------------------------------------------------||
B:|-------------------------------------------------||
G:|/12-12-12-12-12-12-12-12/11-11-11-11-11-11-11-11-||
D:|/x--x--x--x--x--x--x--x-/x--x--x--x--x--x--x--x--||
A:|/10-10-10-10-10-10-10-10/9—-9—-9--9--9--9--9--9--||
E:|-------------------------------------------------||

e:|-------------------------------------------------|
B:|-------------------------------------------------|
G:|-12-12-12-12-12-12-12-12\14-14-14-14-14-14-14-14/|
D:|-x-–x--x--x--x--x--x--x-\x--x--x--x--x—-x--x—x--/|
A:|-10-10-10-10-10-10-10-10\12-12-12-12-12-12-12-12/|
E:|-------------------------------------------------|

e:|---------------------------------|
b:|---------------------------------|
G:|/9-9-9-9-9-9-9-9-9-9-9-9-9-9-9-9-|
D:|/x-x-x-x-x-x-x-x-x-x-x-x-x-x-x-x-|
A:|/7-7-7-7-7-7-7-7-7-7-7-7-7-7-7-7-|
E:|---------------------------------|

e:|-------------------------------------------------|
B:|-------------------------------------------------|
G:|-12-12-12-12-12-12-12-12\14-14-14-14-14-14-14-14\|
D:|-x--x--x--x--x--x--x--x-\x--x--x—-x--x—-x--x--x-\|
A:|-10-10-10-10-10-10-10-10\12-12-12-12-12-12-12-12\|
E:|-------------------------------------------------|

e:|-------------------------------------------------|
B:|-------------------------------------------------|
G:|\16-16-16-16-16-16-16-16\18-18-18-18-18-18-18-18-|
D:|\x--x--x--x--x--x--x--x-\x--x--x--x--x--x--x--x--|
A:|\14-14-14-14-14-14-14-14\16-16-16-16-16-16-16-16-|
E:|-------------------------------------------------|

Both Gtr's end on
e:|---------/-|
B:|---------/-|
G:|--7~~~~~-/-|
D:|--7~~~~~-/-|
A:|--5~~~~~-/-|
E:|---------/-|


************************************************

h = hammer-on
p = pull-off
/ = slide down
\ = slide up
^ = bend
r = release
x = muted
||= repeat

************************************************


Gtr II Frank: Standard Tuning (e,B,G,D,A,E)

[Intro I]
e:|---|
B:|---|
G:|-7-| Strum this chord roughly around 24 times
D:|-x-|
A:|-5-|
E:|---|

e:|-------------------------------|
B:|-------------------------------|
G:|--------------------------7--7-|  Gradually Release PM
D:|-7-7-7-7-7-7-7-7-7-7-7-7--7--7-|
A:|-5-5-5-5-5-5-5-5-5-5-5-5--5--5-|
E:|-------------------------------|
PM  * * * * * * * * * * * *


[Intro II]

e:|----------------------------------|
B:|----------------------------------|
G:|-77777777777777777777777777777777-|
D:|-77777777777777777777777777777777-|
A:|-55555555555555555555555555555555-|
E:|----------------------------------|

e:|----------------------------------|
B:|----------------------------------|
G:|-44444444444444444444444444444444-|
D:|-44444444444444444444444444444444-|
A:|-22222222222222222222222222222222-|
E:|----------------------------------|

e:|----------------------------------|
B:|----------------------------------|
G:|----------------------------------|
D:|-22222222222222222222222222222222-|
A:|-22222222222222222222222222222222-|
E:|-00000000000000000000000000000000-|

e:|----------------------------------|
B:|----------------------------------|
G:|----------------------------------|
D:|-77777777777777777777777777777777-|
A:|-77777777777777777777777777777777-|
E:|-55555555555555555555555555555555-|


[Verse I]

e:|-----------------------------------|
B:|-----------------------------------|
G:|-----------------------------------|
D:|-7777777777777777-4444444444444444-|
A:|-5555555555554444-2222222222222222-|
E:|-----------------------------------|
PM  **************** ****************

e:|-----------------------------------|
B:|-----------------------------------|
G:|-----------------------------------|
D:|-----------------------------------|
A:|-2222222222222222-7777777777777777-|
E:|-0000000000000000-5555555555555555-|
PM  **************** ****************


[Chorus]

e:|----------------------------------|
B:|----------------------------------|
G:|-77777777777777777777777777777777-|
D:|-77777777777777777777777777777777-|
A:|-55555555555555555555555555555555-|
E:|----------------------------------|

e:|----------------------------------|
B:|----------------------------------|
G:|-44444444444444444444444444444444-|
D:|-44444444444444444444444444444444-|
A:|-22222222222222222222222222222222-|
E:|----------------------------------|

e:|----------------------------------|
B:|----------------------------------|
G:|----------------------------------|
D:|-22222222222222222222222222222222-|
A:|-22222222222222222222222222222222-|
E:|-00000000000000000000000000000000-|

e:|----------------------------------|
B:|----------------------------------|
G:|----------------------------------|
D:|-77777777777777777777777777777777-|
A:|-77777777777777777777777777777777-|
E:|-55555555555555555555555555555555-|


[Verse II]

e:|-----------------------------------|
B:|-----------------------------------|
G:|-----------------------------------|
D:|-7777777777777777-4444444444444444-|
A:|-5555555555554444-2222222222222222-|
E:|-----------------------------------|
PM  **************** ****************

e:|-----------------------------------|
B:|-----------------------------------|
G:|-----------------------------------|
D:|-----------------------------------|
A:|-2222222222222222-7777777777777777-|
E:|-0000000000000000-5555555555555555-|
PM  **************** ****************


[Chorus]

e:|----------------------------------|
B:|----------------------------------|
G:|-77777777777777777777777777777777-|
D:|-77777777777777777777777777777777-|
A:|-55555555555555555555555555555555-|
E:|----------------------------------|

e:|----------------------------------|
B:|----------------------------------|
G:|-44444444444444444444444444444444-|
D:|-44444444444444444444444444444444-|
A:|-22222222222222222222222222222222-|
E:|----------------------------------|

e:|----------------------------------|
B:|----------------------------------|
G:|----------------------------------|
D:|-22222222222222222222222222222222-|
A:|-22222222222222222222222222222222-|
E:|-00000000000000000000000000000000-|

e:|----------------------------------|
B:|----------------------------------|
G:|----------------------------------|
D:|-77777777777777777777777777777777-|
A:|-77777777777777777777777777777777-|
E:|-55555555555555555555555555555555-|


[Solo]

e:|-----------------------------------------------------------------|
B:|-----------------------------------------------------------------|
G:|-----------------------------------------------------------------|
D:|-9-9-9-9-7-7-7-7-6-6-6-6-2-2-2-2-7-7-7-7-6-6-6-6-4-4-4-4-2-2-2-2-|
A:|-9-9-9-9-7-7-7-7-7-7-7-7-2-2-2-2-7-7-7-7-7-7-7-7-4-4-4-4-2-2-2-2-|
E:|-7-7-7-7-5-5-5-5-4-4-4-4-0-0-0-0-5-5-5-5-4-4-4-4-2-2-2-2-0-0-0-0-|

e:|----------------------------------|
B:|----------------------------------|
G:|----------------------------------|
D:|-9-9-9-9-7-7-7-7-6-6-6-6-2-2-2-2--|
A:|-9-9-9-9-7-7-7-7-7-7-7-7-2-2-2-2--|
E:|-7-7-7-7-5-5-5-5-4-4-4-4-0-0-0-0--|


[After Solo]

e:|---|
B:|---|
G:|---|
D:|-7-| Repeat chord 34 times approx
A:|-7-|
E:|-5-|
PM  *


[Bridge Pt I]
e:|-------|
B:|-------|
G:|-------|
D:|--<7>~-| (Turn Volume up)
A:|--<5>~-|
E:|-------|


[Bridge pt II]
e:|------------|
B:|------------|
G:|--4~~~~~~~~-|
D:|--4~~~~~~~~-|
A:|--2~~~~~~~~-|
E:|------------|

Both Gtrs are silent here

Both Gtr's
e:|------------------------|
B:|------------------------|
G:|------------------------|
D:|-2-2-2-2--7~~-777777777-|
A:|-2-2-2-2--7~~-777777777-|
E:|-0-0-0-0--5~~-555555555-|
PM               ********


[Chorus]
e:|----------------------------------|
B:|----------------------------------|
G:|-77777777777777777777777777777777-|
D:|-77777777777777777777777777777777-|
A:|-55555555555555555555555555555555-|
E:|----------------------------------|

e:|----------------------------------|
B:|----------------------------------|
G:|-44444444444444444444444444444444-|
D:|-44444444444444444444444444444444-|
A:|-22222222222222222222222222222222-|
E:|----------------------------------|

e:|----------------------------------|
B:|----------------------------------|
G:|----------------------------------|
D:|-22222222222222222222222222222222-|
A:|-22222222222222222222222222222222-|
E:|-00000000000000000000000000000000-|

e:|----------------------------------|
B:|----------------------------------|
G:|----------------------------------|
D:|-77777777777777777777777777777777-|
A:|-77777777777777777777777777777777-|
E:|-55555555555555555555555555555555-|

Both Gtr's end on
e:|---------/-|
B:|---------/-|
G:|--7~~~~~-/-|
D:|--7~~~~~-/-|
A:|--5~~~~~-/-|
E:|---------/-|


************************************************

h = hammer-on
p = pull-off
/ = slide down
\ = slide up
^ = bend
r = release
x = muted
||= repeat

************************************************
Suggest correction
comments
print report bad tab
16 comments total. Showing first comments.
+1 reply
s_guitar_b 26 Nov 15, 2006 01:00 AM

Not the best tab I've seen, but it's close. I think too many people have tabbed this song tbh.

Some of the rythym and your piano bit is a bit off too,
i the play the piano bit as:

e|-------17-15p14-------------14------12----|
b|-----15--------15---------15------14------|
g|---14------------14-----14------14-----4~-|
d|-12----------------12-12------11-------2~-|
a|---------------------------------------2~-|
e|------------------------------------------|
and if you listen to any live recordings, it tends to bit kind of
staccato-ed. As for the solo, no comment, Ray edits it from show to show... and it keeps getting better...

0 reply
f1f2 774 Nov 15, 2006 01:18 AM

i have seen some parts of the tab somewhere else... some looks like a part of that tab from mcr_01_fan's... check it out

0 reply
vmanoman 659 Nov 15, 2006 01:39 AM

nice, but i swear i saw this tab before...

guest
You may want to rate the tab now too:
select rating
Wanna post a correction for this tab? Suggest correction