Oops, an error
Loading. Please wait.

Jetset Life Is Gonna Kill You tab

version 1
version 1

Whole song

Interactive

13,569 views 27 this week
3 commentsread comments
1 2 3 4 5
x 12
add to favorites
×
Save as Personal and add changes to this tab that will be seen only by you. Learn more ›
×
You can save this tab as Personal to edit and correct it or add notes. All changes will be seen only by you. Learn more »
launch autoscroll
font size
0
reset
how to read this tab
guitar tuner
edit
Autoscroll
slow
fast
+/-
esc
set tempo
stop
Author
My Chemical Romance The jet set life is gonna kill you
From the album: Three cheers for my sweet revenge
Track 7
Tabbed by: Liam
Email: guitar_rocker_47@hotmail.com
Tuning: standard

Have fun and plz rate and leave comments, thanks! 


Verse (played clean -soaked in reverb)
E|-----------------------------------------|----------------------------------------|
B|-3333333333--1111111111------------------|-3333333333--1111111111-----------------|
G|-2222222222--0000000000--333333333333333-|-2222222222--0000000000—333333333333333-|
D|-------------------------333333333333333-|------------------------333333333333333-|
A|-----------------------------------------|----------------------------------------|
E|-----------------------------------------|----------------------------------------|

Pre Chorus
e|-------------------|
B|-------------------|
G|--------5555---5-5-|
D|--------5555---5-5-|
A|-13\3---3333---3-3-|
E|-------------------|

Chorus
e|----------------------------------------------|
B|----------------------------------------------|
G|-777-77-----666--66-----3333333333------------|    
D|-777-77-33--666--66-55--3333333333--555555-55-|
A|-555-55-33--444--44-55--1111111111--555555-55-|    
E|--------11----------33--------------333333-33-| 

Post Chorus
E|-------------|
B|-------------|
G|-7~~~---7~~~-|
D|-7~~~---7~~~-|
A|-5~~~---5~~~-|
E|-------------|

Verse 2
e|----------------------|----------------------|----------------------|
B|----------------------|----------------------|----------------------|
G|-7777-7--7777-7--77-7-|-5555-5--5555-5--55-5-|-3333-3--3333-3--33-3-|
D|-7777-7--7777-7--77-7-|-5555-5--5555-5--55-5-|-3333-3--3333-3--33-3-|
A|-5555-5--5555-5--55-5-|-3333-3--3333-3--33-3-|-1111-1--1111-1--11-1-|
E|----------------------|----------------------|----------------------|
PM ****    ****    **     ****    ****    **     ****    ****    **

e|----------------------|
B|----------------------|
G|-2222-2--2222-2--22-2-|
D|-2222-2--2222-2--22-2-|
A|-0000-0--0000-0--00-0-|
E|----------------------|
PM ****    ****    **

Verse 2 is played x4 and on the 3rd repeat a second guitar joins in with this x2
e|----------------------|----------------------|----------------------|
B|----------------------|----------------------|----------------------|
G|-7-7-7-7-777-7-7-7-7-7|-5-5-5-5-555-5-5-5-5-5|-3-3-3-3-333-3-3-3-3-3|
D|-x-x-x-x-xxx-x-x-x-x-x|-x-x-x-x-xxx-x-x-x-x-x|-x-x-x-x-xxx-x-x-x-x-x|
A|-5-5-5-5-555-5-5-5-5-5|-3-3-3-3-333-3-3-3-3-3|-1-1-1-1-111-1-1-1-1-1|
E|----------------------|----------------------|----------------------|

e|----------------------|
B|----------------------|
G|-2-2-2-2-222-2-2-2-2-2|
D|-x-x-x-x-xxx-x-x-x-x-x|
A|-0-0-0-0-000-0-0-0-0-0|
E|----------------------|

Interlude (t= add tremolo to the note/chord)
e|-----|-10-5--5---10-5--5-----6-10-6----6-10-6------6---------6-------6-10-----9-|
B|-----|-----6---------6-----8---------8---------5-8---8---5-8---5---8------5-8---|
G|-7t--|--------------------------------------------------------------------------|
D|-7t--|--------------------------------------------------------------------------|
A|-5t--|--------------------------------------------------------------------------|
E|-----|--------------------------------------------------------------------------|


e|---1-5-1---1-5-1----6-10-6----6-10-6-----6-------6------6-10-----9-|----------|
B|-3-------3--------8---------8--------5-8--5--5-8--5---8------5-8---|----------|
G|-------------------------------------------------------------------|----------|
D|-------------------------------------------------------------------|-55555555-|
A|-------------------------------------------------------------------|-55555555-|
E|-------------------------------------------------------------------|-33333333-|
PM                                                            ********

e|--------------------------------------|--------------------------------------|
B|--------------------------------------|--------------------------------------|
G|--------------------------------------|--------------------------------------|
D|-55555555--77777777--8888888888888888-|-55555555--77777777--8888888888888888-|
A|-55555555--77777777--8888888888888888-|-55555555--77777777--8888888888888888-|
E|-33333333--55555555--6666666666666666-|-33333333--55555555--6666666666666666-|
PM ********  ********  ****************   ********  ********  **

Outro
e|-----------------------------------------|-----------------------------------------|
B|-----------------------------------------|-----------------------------------------|
G|-7777-------6666-------33333333----------|-7777-------6666-------33333333----------|
D|-7777-3333--6666-5555--33333333-55555555-|-7777-3333--6666-5555--33333333-5555--5-5|
A|-5555-3333--4444-5555--11111111-55555555-|-5555-3333--4444-5555--11111111-5555--5-5|
E|------1111-------3333-----------33333333-|------1111-------3333-----------3333--3-3|

Order

Verse x2
Pre Chorus
Chorus x2
Post chorus
Verse 2 x4
Pre Chorus
Chorus x4
Interlude
Chorus x4
Outro


Suggest correction
Creating personal tab
Creating personal tab
You can edit any tab online and save it as your Personal.

You can edit, replace or remove any tab part or add personal notes – all changes will be seen only by you.

Personal tabs can be accessed anytime from any device, even offline.
Learn more »
comments
print report bad tab
3 comments total.
0 reply
mcr_01_fan 697 Jan 24, 2006 08:58 AM

Where is guitar II? the only part of this tab that has it is the octave section in verse II, and that's wrong, the rest of this tab is good, but only 3 stars im afraid, because of no guitar II ***

0 reply
Wallmersbacher 16 Oct 02, 2007 01:18 AM

For only ONE Guitar it's right. but the Interlude... I don't know if it sounds as good as u usually wanted to hear it but i like to play it on the 3rd and 4th or 2nd string i have to try it out first. But I KNOW that the last string with the 10th fret is TOO HIGH for the sound in the Interlude. And the part of the 2nd guitar... hm.. i think you actually didn't really try it or listen. Cuz it's really simple - but i think the other guitar players know how to play it right, thats pretty easy

and the tab is relly ok :)

0 reply
joyous_pain1221 30 Nov 17, 2007 02:11 PM

Hey, uhhhhh does anyone know how to play the intro? Add me to friends if ya want, over all, a good tab!

guest
You may want to rate the tab now too:
select rating
Wanna post a correction for this tab? Suggest correction