Oops, an error
Loading. Please wait.

Kill All Your Friends Bass Tab

version 1
version 1

Whole song

Interactive

10,927 views 27 this week
9 commentsread comments
1 2 3 4 5
x 13
add to favorites
launch autoscroll
font size
0
reset
guitar tuner
Autoscroll
slow
fast
+/-
esc
set tempo
stop
Help us to improve Ultimate-Guitar.com Take our survey!
×
Author
Difficulty
intermediate
"Kill All Your Friends (B-Side)- Single"
by: My Chemical Romance
Tuning: Standard(EADG)

This is my first tab so any feedback I can get would be appreciated. The song should be
order and the tab should run throught the whole song. I had the Verse and Chorus labled
into parts, however the numbering became confusing so I called them "variations". You 
pretty much play it straight through.

[Verse1] x6
G|----------------------------------|
D|-------------0-2------------------|
A|-----------------2-2-2-2-3-3-3-5--|
E|-3-3-3-3-3-3----------------------|

[Verse1 Variation] x2
G|----------------------------------|
D|-------------0-2------------------|
A|-----------------2-2-2-2-3-3-3-5--|
E|-3---3~---3-----------------------|

G|----------------------------------|
D|-------------0-2------------------|
A|-----------------2-2-2-2-3-3-3-5--|
E|-3-3-3-3-3-3----------------------|

[Chorus1] x2
G|---------------------------------------------------------------------|
D|---------------------------------------------------------------------|
A|-3-3-3-3-3-3-3-3--5-5-5-5-5-5-5-5-------------------2-2-2-2-2-2-2-2--|
E|-----------------------------------3-3-3-3-3-3-3-3-------------------|

[Chorus1 Variation] x1
G|-----------------------------------------------------------------------|
D|--------------------------------------------2-0-2----------------------|
A|-3-3-3-3-3-3-3-3--5-5-5-5-5-5-5-5---------------------2-2-2-2-2-2-2-2--|
E|-----------------------------------3-3-3-3---------3-------------------|

[Chorus1 End] x1
G|--------------------------|
D|---------2----------------|
A|-3-3-3-3---3-3-3--5---5~--|
E|--------------------------|

[Verse2] x6
G|----------------------------------|
D|-------------0-2------------------|
A|-----------------2-2-2-2-3-3-3-5--|
E|-3-3-3-3-3-3----------------------|

[Verse2 Variation] x2
G|----------------------------------|
D|-------------0-2------------------|
A|-----------------2-2-2-2-3-3-3-5--|
E|-3---3~---3-----------------------|

G|----------------------------------|
D|-------------0-2------------------|
A|-----------------2-2-2-2-3-3-3-5--|
E|-3-3-3-3-3-3----------------------|

[Chorus2] x3
G|--------------------------------------------------------------------|
D|--------------------------------------------------------------------|
A|-3-3-3-3-3-3-3-3--5-5-5-5-5-5-5-5-------------------2-2-2-2-2-2-2-2-|
E|-----------------------------------3-3-3-3-3-3-3-3------------------|

[Chorus2 End] x1
G|---------------------------|
D|---------------------------|
A|-3-3-3-3-3-3-3-3--5---5~---|
E|---------------------------|

[Breakdown] x1
G|---------------------------------------------------------------------|
D|-----------------------------------2-2-2-2-2-2-2-2-------------------|
A|------------------2-2-2-2-2-2-2-2-------------------5-5-5-5-5-5-5-5--|
E|-3-3-3-3-3-3-3-3-----------------------------------------------------|

[Breakdown Variation] x2
G|---------------------------------------------------------------------|
D|-----------------------------------2-2-2-2-2-2-2-2--4-4-4-4-4-4-4-4--|
A|-3-3-3-3-3-3-3-3--5-5-5-5-5-5-5-5------------------------------------|
E|---------------------------------------------------------------------|

[Chorus3] x2
G|---------------------------------------------------------------------|
D|---------------------------------------------------------------------|
A|-3-3-3-3-3-3-3-3--5-5-5-5-5-5-5-5-------------------2-2-2-2-2-2-2-2--|
E|-----------------------------------3-3-3-3-3-3-3-3-------------------|

[Chorus3 Variation] x1
G|-------------------------------------------------|
D|-------------------------------------------------|
A|-3-3-3-3-3-3-3-3--5-5-5-5-5-5-5-5----------------|
E|-----------------------------------3~---2~---0~--|

[Chorus3 End] x1
G|--------------------------|
D|--------------------------|
A|-3-3-3-3-3-3-3-3--5---5~--|
E|--------------------------|

[Outro] x1
G|----------------------------------|
D|-------------0-2------------------|
A|-----------------2-2-2-2-3-3-3-5--|
E|-3-3-3-3-3-3----------------------|

G|-------------------------------------|
D|-------------0-2---------------------|
A|-----------------2-2-2-2-3-3-3-5-----|
E|-3-3-3-3-3-3---------------------3~--|
Suggest correction
comments
print report bad tab
9 comments total. Showing first comments.
0 reply
s_guitar_b 26 Mar 15, 2007 11:03 AM

I haven't heard this song, how/where did you get it?

+1 reply
kjw3107 10 Apr 12, 2007 04:17 PM

its a b-side to one of the singles from the new album, if you go on itunes you can by the famous last words single with this and another b side

0 reply
kerpan 51 Apr 17, 2007 04:56 PM

exactly

guest
You may want to rate the tab now too:
select rating
Wanna post a correction for this tab? Suggest correction