Oops, an error
Loading. Please wait.

Mama Bass Tab

version 1
version 1

Whole song

28,132 views 141 this week
1 commentread comment
1 2 3 4 5
excellent!
x 12
add to favorites
launch autoscroll
font size
0
reset
guitar tuner
Tab Pro tools
  • play this tab
  • loop segment
  • change instrument
  • show fretboard
  • metronome
Autoscroll
slow
fast
+/-
esc
set tempo
stop
Contributor
My Chemical Romance – Mama, from album The Black Parade

Standard Tuning EADG

Verse 0.39
|---------------------------------------------------------------------------------------|
|---------------------------------------------------------------------------------------|
|---------------------------------------------------------------------------------------|
|-0--7--0--7--0--7--0--7--0--7--0--7--7--2--7--2--5--0--7--2-3-3-2-0--7--0--7--7--3-2-0-|

Chorus
|--------------------------------------------------------------------------------|
|--------------------------------------------------------------------------------|
|-33333333-55555750----------3333353-----------22222222---------------------2-3~-|
|-------------------33333333--------3-11111111----------0~---2~---3~--0-2-3------|

Verse 1.39
|---------------------------------------------------------------------------------------|
|---------------------------------------------------------------------------------------|
|---------------------------------------------------------------------------------------|
|-0--7--0--7--0--7--0--7--0--7--0--7--7--2--7--2--5--0--7--2-3-3-2-0--7--0--7--7--3-2-0-|

Chorus
|-----------------------------------------------------------------------------|
|-----------------------------------------------------------------------------|
|-33333333-55555750----------3333353-----------22222222---------------------2-|
|-------------------33333333--------3-11111111----------0~---2~---3~--0-2-3---|

|-----------------------------------------------------------------------------------------|
|-----------------------------------------------------------------------------------------|
|-33333333-55555750----------3333353-----------22222222---------------------2-3~---6~-----|
|-------------------33333333--------3-11111111----------0~---2~---3~--0-2-3------------0~-|

Bridge
|--------------------------------------------------------------------------------------------|
|--------------------------------------------------------------------------------------------|
|--------------------------------------------------------------------------------------------|
|-0--7--0--7--0--7--0--7--0--7--0--7--7--2--7--2--5--0--7--2-3-3-2-0--7--0--7--7--3-2-0~-12\-|

|------------------------------------------------------------------|
|------------------------------------------------------------------| 
|---7--------7--------7--------7-----------------------------------|
|-0---5-7--0---5-7--0---5-7--0---5-7--7-8-5--7-8-6--7-8-5--7-5-3-2-|

|-------------------------------------------------------------------------|
|-------------------------------------------------------------------------| 
|---7--------7--------7--------7------------------------------------------|
|-0---5-7--0---5-7--0---5-7--0---5-7--7-8-5--7-8-6--7-8-5--7~--5~--3~--2~-|

Outro 3.35
|--------------------------------------------|
|--------------------------------------------| 
|--------------------------------------------|
|-5-5-5-7-7-7-3-3-3-0-0-0-0-0-0-6-6-6-7~--7~-|
					
|-------------------------------------------------------------------------------|
|-------------------------------------------------------------------------------| 
|-------------------------------------------------------------------------------|
|-0-0-0-0-0-0-0-0-0-0-0-0-0-0-0-5-5-5-7-7-7-7-7-7-5-5-5-7-7-7-3-3-3-0-0-0-0-0-0-|

|-------------------|
|-------------------| 
|-------------------|
|-6-6-6-7-7-7-7-7-7-|

|-------------------------------------------------------------------------------|
|-------------------------------------------------------------------------------| 
|-------------------------------------------------------------------------------|
|-0-0-0-0-0-0-0-0-0-0-0-0-0-0-0-5-5-5-7-7-7-7-7-7-5-5-5-7-7-7-3-3-3-0-0-0-0-0-0-|

|------------------|
|------------------| 
|------------------|
|-7-7-7-0--0--0--0-|

That’s what I think it goes like, not exactly 100% correct but sounds all right.
Please rate it and email me if you have any problems, adam.vaughan@hotmail.co.uk

\ = Slide Down
~ = Hold note

Adam Vaughan
comments
print report bad tab
1 comment total.
0 reply
mcr_2010 wrote on August 1 2007, 07:56 pm

nice job seperating it into measures, it made playing the song soooo much easier.

I want to post or [tab]
guest
You may want to rate the tab now too:
select rating
Please do not post tabs as comments. Select "correction" instead!