Oops, an error
Loading. Please wait.

Mama Tab

version 1
version 1

Whole song

40,394 views 60 this week
8 commentsread comments
1 2 3 4 5
worth learning
x 4
add to favorites
launch autoscroll
font size
0
reset
how to read this tab
guitar tuner
Autoscroll
slow
fast
+/-
esc
set tempo
stop
Help us to improve Ultimate-Guitar.com Take our survey!
×
Author
-----------------------------------------------------------------------------
                         Mama - My Chemical Romance
-----------------------------------------------------------------------------
Tabbed by: whatsernamex

This is one of the greatest songs on the Black Parade. I couldnt wait to let someone tab 
so i tried it on my own. I think its sounds pretty well.
Please vote&comment!


Tuning: Standard.

I couldnt hear the first bit that good, so i just begin with the part when Gerard starts 
sing.

e|--------------------------------------------------------------------------|
B|-----5------4-----2-----4------0------5------4-----5----------------------|
G|-----4------4-----2-----4------0------4------4-----4----------------------|
D|--------------------------------------------------------------------------|
A|---------2------0-----2-------------------2-------------------------------|
E|--0--------------------------3------0------------0------------------------|

Chorus:

e|--------------------------------------------------------------------------|
B|--------------------------------------------------------------------------|
G|--5---7-------5-------4--------9--7--4------------------------------------|
D|--5---7---5---5---3---4--------9--7--4------------------------------------|
A|--3---5---5---3---3---2--------7--5--2------------------------------------|
E|----------3-------1-------------------------------------------------------|

End of chorus:
e|--------------------------------------------------------------------------|
B|--------------------------------------------------------------------------|
G|--4~---8~--9~-------------------------------------------------------------|
D|--4~---8~--9~-------------------------------------------------------------|
A|--2~---6~--7~-------------------------------------------------------------|
E|--------------------------------------------------------------------------|

Thats all ive got and i dont know if im gonna post anything more. Cause i dont have an 
guitar, so the last part of the song is quite hard for me. So ill let you guys do that. 
fun!


| /  slide up
| \  slide down
| h  hammer-on
| p  pull-off
| ~  vibrato
| +  harmonic
| x  Mute note
=============================================================================
Suggest correction
comments
print report bad tab
8 comments total. Showing first comments.
0 reply
lynxy 47 wrote on October 30 2006, 05:52 pm

pretty damn good.

0 reply
Whatsernamex 102 wrote on October 31 2006, 02:22 pm

thankyouthankyoou. =)

0 reply
son_of_page 143 wrote on November 1 2006, 07:37 pm

May sound not bad, but its wrong!

Frank Iero uses Barr chords in this song, goes like this

|---7---------7---------5---5-----7---7----3---3----0---0---0---0--
|---8---------7---------5---5-----7---7----3---3----0---0---0---0--
|---9--X12----8---------6---6-----8---8----4---4----1---1---1---1--
|---9---------9--X4-----7---7-----9---9----5---5----2---2---2---2--
|-7-----------9---------7---7-----9---9----5---5----2---2---2---2--
|-----------7---------5---5-----7---7----3---3----0---0---0---0----

----2---2----0---0---0---0-|
----3---3----0---0---0---0-|
----4---4----1---1---1---1-|
----4---4----2---2---2---2-|
--2---2------2---2---2---2-|
-----------0---0---0---0---|

enjoy

guest
You may want to rate the tab now too:
select rating
Wanna post a correction for this tab? Suggest correction