Oops, an error
Loading. Please wait.

Mama Bass Tab

version 2
version 2

Whole song

23,732 views 30 this week
15 commentsread comments
1 2 3 4 5
x 58
add to favorites
launch autoscroll
font size
0
reset
guitar tuner
Autoscroll
slow
fast
+/-
esc
set tempo
stop
Help us to improve Ultimate-Guitar.com Take our survey!
×
Author
Difficulty
novice
[Verse 1] 
(begin at “Oh well now, Mama, we’re all going to die...”)
G|--------|--------|--------|--------|--------|--------|--------|--------|
D|--------|--------|--------|--------|--------|--------|--------|--------|
A|--------|--------|--------|----2---|--------|------2-|--------|--------|
E|0-7-0-7-|0-7-0-7-|0-7-0-7-|7-2---2-|5-0-7-7-|-3-320--|0-7-7-7-|0.------|

[Chorus 1]
“And we go, don’t blame us...”
G|--------|--------|--------|--------|--------|--------|--------|--------|
D|--------|--------|--------|--------|--------|--------|--------|--------|
A|33333333|55555753|--------|33333530|------3-|22222222|--------|-------2|
E|--------|--------|33333333|--------|111111--|--------|0~--2~--|3~--023-|

[Chorus 1]
(continued)
G|--------|--------|
D|--------|--------|
A|3~--6~--|7~------|
E|--------|--------|

[Verse 2]
(begin at “Well, Mother, what the war did to my legs...”)
G|--------|--------|--------|--------|--------|--------|--------|--------|
D|--------|--------|--------|--------|--------|--------|--------|--------|
A|--------|--------|--------|----2---|--------|------2-|--------|--------|
E|0-7-0-7-|0-7-0-7-|0-7-0-7-|7-2---2-|5-0-7-7-|-3-320--|0-7-7-7-|0.------|

[Chorus 2]
(“And we go, don’t blame us...”)
G|--------|--------|--------|--------|--------|--------|--------|--------|
D|--------|--------|--------|--------|--------|--------|--------|--------|
A|33333333|55555753|--------|33333530|------3-|22222222|--------|-------2|
E|--------|--------|33333333|--------|111111--|--------|0~--2~--|3---023-|

[Chorus 2]
(continued): “She said, ‘You ain’t no son of mine’...”
G|--------|--------|--------|--------|--------|--------|--------|--------|
D|--------|--------|--------|--------|--------|--------|--------|--------|
A|33333333|55555753|--------|33333530|------3-|22222222|--------|-------2|
E|--------|--------|33333333|--------|111111--|--------|0~--2~--|3~--023-|

[Chorus 2]
(continued)
G|--------|--------|
D|--------|--------|
A|3~--6~--|7~------|
E|--------|--------|

[Bridge 1]
“Mama, we all go to hell...”
G|--------|--------|--------|--------|--------|--------|--------|--------|
D|--------|--------|--------|--------|--------|--------|--------|--------|
A|--------|--------|--------|----2---|--------|------2-|--------|--------|
E|0-7-0-7-|0-7-0-7-|0-7-0-7-|7-2---2-|5-0-7-7-|-3-320--|0-7-7-7-|0~------|

(Half speed)
[Interlude]                            “Mama... Mama...”
G|--------|--------|--------|--------|--------|--------|--------|--------|
D|--------|--------|--------|--------|--------|--------|--------|--------|
A|--------|--------|--------|--------|--------|--------|--------|--------|
E|0-0-5-7-|0-0-5-7-|0-0-5-7-|0-0-5-7-|7-8-5---|7-8-6---|7-8-5---|7-5-3-2-|

G|--------|--------|--------|--------|--------|--------|--------|
D|--------|--------|--------|--------|--------|--------|--------|
A|--------|--------|--------|--------|--------|--------|--------|
E|0-0-5-7-|0-0-5-7-|0-0-5-7-|0-0-5-7-|7-8-5---|7-8-6---|7-8-5---|

G|--------|--------|
D|--------|--------|
A|--------|--------|
E|7~--5~--|3~--2~--|

[Bridge 2]
(begin at “But the shit that I’ve done...”)
G|------|------|------|------|------|------|------|------|
D|------|------|------|------|------|------|------|------|
A|------|------|------|------|------|------|------|------|
E|5-5-5-|7-7-7-|3-3-3-|0-0-0-|0-0-0-|5-5-5-|7-7-7-|7-7-7-|

[Ending Part 1]
“We’re damned after all...”
G|------|------|------|------|------|------|------|------|
D|------|------|------|------|------|------|------|------|
A|------|------|------|------|------|------|------|------|
E|0-0-0-|0-0-0-|0-0-0-|0-0-0-|0-0-0-|5-5-5-|7-7-7-|7-7-7-|

[Ending Part 1]
(continued)
G|------|------|------|------|------|------|------|------|
D|------|------|------|------|------|------|------|------|
A|------|------|------|------|------|------|------|------|
E|5-5-5-|7-7-7-|3-3-3-|0-0-0-|0-0-0-|5-5-5-|7-7-7-|7-7-7-|

[Ending Part 2]
“We’ll all carry on when our brothers in arms are gone...”
G|------|------|------|------|------|------|------|------|
D|------|------|------|------|------|------|------|------|
A|------|------|------|------|------|------|------|------|
E|0-0-0-|0-0-0-|0-0-0-|0-0-0-|0-0-0-|5-5-5-|7-7-7-|7-7-7-|

[Ending Part 2]
(continued)
G|------|------|------|------|------|------|------|------|------|------|
D|------|------|------|------|------|------|------|------|------|------|
A|------|------|------|------|------|------|------|------|------|------|
E|5-5-5-|7-7-7-|3-3-3-|0-0-0-|0-0-0-|5-5-5-|0~----|0~----|0~----|0.----|


************************************

| ~  Vibrato

************************************
Suggest correction
comments
print report bad tab
15 comments total. Showing first comments.
0 reply
chads_in_hi_fi 97 Mar 21, 2007 08:00 PM

nice tab! 5 stars

0 reply
iloveamanda 10 Apr 07, 2007 10:48 PM

this is the more accurte version of the song. good job

0 reply
Billy Bullshot 52 Apr 08, 2007 11:25 AM

Papa loves mumbo
-Junky

guest
You may want to rate the tab now too:
select rating
Wanna post a correction for this tab? Suggest correction