Oops, an error
Loading. Please wait.

Mama Bass Tab

version 3
version 3

Whole song

2,468 views 3 this week
1 commentread comment
1 2 3 4 5
x 8
add to favorites
launch autoscroll
font size
0
reset
guitar tuner
Autoscroll
slow
fast
+/-
esc
set tempo
stop
Help us to improve Ultimate-Guitar.com Take our survey!
×
Author
Difficulty
advanced
-------------------------------------------------------------------------------
                             MAMA - My Chemical Romance
-------------------------------------------------------------------------------

Tabbed by Zakk137
email - zkarpenko@comcast.net



Okay, so the last version was mostly correct, but there was a LOT of unnecessary shifting.
So here is a way easier version.



Standard tuning
- 4/4 Time
- . is 'staccato'
- ~ is 'let ring'
- 2nd Guitar Intro
- Bass comes in (on the beat) with Drums and 1st Guitar

Verse 1: begin at "Oh well now, Mama, we're all going to die..."
G|--------|--------|--------|--------|--------|--------|--------|--------|
D|--------|--------|--------|--------|--------|--------|--------|--------|
A|--2---2-|--2---2-|--2---2-|2---2---|----2-2-|------2-|--2-2-2-|--------|
E|0---0---|0---0---|0---0---|--2---2-|5-0-----|-3-320--|0-------|0.------|

Chorus 1: "And we go, don't blame us..."
G|--------|--------|--------|--------|--------|--------|--------|--------|
D|--------|-----2--|--------|--------|--------|--------|--------|--------|
A|33333333|55555-53|--------|33333530|------3-|22222222|--------|-------2|
E|--------|--------|33333333|--------|111111--|--------|0~--2~--|3~--023-|

Chorus 1 (continued):
G|--------|--------|
D|----1~--|2~------|
A|3~------|--------|
E|--------|--------|

Verse 2: begin at "Well, Mother, what the war did to my legs..."
G|--------|--------|--------|--------|--------|--------|--------|--------|
D|--------|--------|--------|--------|--------|--------|--------|--------|
A|--2---2-|--2---2-|--2---2-|2---2---|----2-2-|------2-|--2-2-2-|--------|
E|0---0---|0---0---|0---0---|--2---2-|5-0-----|-3-320--|0-------|0.------|

Chorus 2: "And we go, don't blame us..."
G|--------|--------|--------|--------|--------|--------|--------|--------|
D|--------|-----2--|--------|--------|--------|--------|--------|--------|
A|33333333|55555-53|--------|33333530|------3-|22222222|--------|-------2|
E|--------|--------|33333333|--------|111111--|--------|0~--2~--|3---023-|

Chorus 2 (continued): "She said, 'You ain't no son of mine'..."
G|--------|--------|--------|--------|--------|--------|--------|--------|
D|--------|-----2--|--------|--------|--------|--------|--------|--------|
A|33333333|55555-53|--------|33333530|------3-|22222222|--------|-------2|
E|--------|--------|33333333|--------|111111--|--------|0~--2~--|3~--023-|

Chorus 2 (continued):
G|--------|--------|
D|----1~--|2~------|
A|3~------|--------|
E|--------|--------|


Bridge 1: "Mama, we all go to hell..."
G|--------|--------|--------|--------|--------|--------|--------|--------|
D|--------|--------|--------|--------|--------|--------|--------|--------|
A|--2---2-|--2---2-|--2---2-|2---2---|----2-2-|------2-|--2-2-2-|--------|
E|0---0---|0---0---|0---0---|--2---2-|5-0-----|-3-320--|0-------|0~------|

- Half speed

Interlude:                            "Mama... Mama..."
G|--------|--------|--------|--------|--------|--------|--------|--------|
D|--------|--------|--------|--------|--------|--------|--------|--------|
A|------2-|------2-|------2-|------2-|2-3-0---|2-3-0---|2-3-0---|2-------|
E|0-0-5---|0-0-5---|0-0-5---|0-0-5---|--------|--------|--------|--5-3-2-|

Interlude (continued):
G|--------|--------|--------|--------|--------|--------|--------|
D|--------|--------|--------|--------|--------|--------|--------|
A|------2-|------2-|------2-|------2-|2-3-0---|2-3-0---|2-3-0---|
E|0-0-5---|0-0-5---|0-0-5---|0-0-5---|--------|--------|--------|

Interlude (continued):
G|--------|--------|
D|--------|--------|
A|2~------|--------|
E|----5~--|3~--2~--|

- Time change to 3/4 Time
- 2nd Guitar plays first part

Bridge 2: begin at "But the shit that I've done..."
G|------|------|------|------|------|------|------|------|
D|------|------|------|------|------|------|------|------|
A|------|2-2-2-|------|------|------|------|2-2-2-|2-2-2-|
E|5-5-5-|------|3-3-3-|0-0-0-|0-0-0-|5-5-5-|------|------|

Ending Part 1: "We're damned after all..."
G|------|------|------|------|------|------|------|------|
D|------|------|------|------|------|------|------|------|
A|------|------|------|------|------|------|2-2-2-|2-2-2-|
E|0-0-0-|0-0-0-|0-0-0-|0-0-0-|0-0-0-|5-5-5-|------|------|

Ending Part 1 (continued):
G|------|------|------|------|------|------|------|------|
D|------|------|------|------|------|------|------|------|
A|------|2-2-2-|------|------|------|------|2-2-2-|2-2-2-|
E|5-5-5-|------|3-3-3-|0-0-0-|0-0-0-|5-5-5-|------|------|

Ending Part 2: "We'll all carry on when our brothers in arms are gone..."
G|------|------|------|------|------|------|------|------|
D|------|------|------|------|------|------|------|------|
A|------|------|------|------|------|------|2-2-2-|2-2-2-|
E|0-0-0-|0-0-0-|0-0-0-|0-0-0-|0-0-0-|5-5-5-|------|------|

Ending Part 2 (continued):
G|------|------|------|------|------|------|------|------|------|------|
D|------|------|------|------|------|------|------|------|------|------|
A|------|2-2-2-|------|------|------|------|------|------|------|------|
E|5-5-5-|------|3-3-3-|0-0-0-|0-0-0-|5-5-5-|0~----|0~----|0~----|0.----|

Suggest correction
comments
print report bad tab
1 comment total.
0 reply
XxThreeCheersxX 12,269 Apr 15, 2016 01:30 PM

haven't heard this song in a while but sounds accurate to me, don't understand why there's an advanced rating though cuz it sounds relatively straightforward, otherwise good job

guest
You may want to rate the tab now too:
select rating
Wanna post a correction for this tab? Suggest correction