Oops, an error
Loading. Please wait.

Mama Tab

version 3
version 3

Whole song

14,777 views 24 this week
3 commentsread comments
1 2 3 4 5
accurate
x 6
add to favorites
launch autoscroll
font size
0
reset
how to read this tab
guitar tuner
Autoscroll
slow
fast
+/-
esc
set tempo
stop
Help us to improve Ultimate-Guitar.com Take our survey!
×
-------------------------------------------------------------------------------
                             Mama - My Chemical Romance
-------------------------------------------------------------------------------
Tabbed by: Megan
email: killerguitarfreak@hotmail.com

Tuning: eBGDAE

Verse:
guitar 1
e|---7---------7--------5----5----7----7----3----3----0--------3---3---0---|
B|---8---------7--------5----5----7----7----3----3----0--------3---3---0---|
G|---9--x12----8--x4----6----6----8----8----4----4----0--x4----4---4---0---|
D|---9---------9--------7----7----9----9----5----5----2--------5---5---2---|
A|---7---------9--------7----7----9----9----5----5----2--------5---5---2---|
E|-0---------7-7------5-5--5-5--7-7--7-7--3-3--3-3--0-0------3-3-3-3-0-0---|

(If you don’t want to use barr chords, you can use this alternative)

e|-------------------------------------------------------------------------|
B|--5--------4---------2---2---4----4----0----0----5---5----4---4---5---5--|
G|--4-—x12---4—-x4-----2---2---4----4----0----0----4---4----4---4---4---4--|
D|2------------------------------------------------------------------------|
A|---------2---------0---0---2----2-----------------------2---2------------|
E|-------------------------------------3----3----0---0------------0---0----|

Chorus:
guitars 1 & 2

e|------------------------------------------------------------------\
B|------------------------------------------------------------------\
G|-5-5-5-5-5-5-5-7-7-7-7-------------------------5-5-5-5------------\
D|-5-5-5-5-5-5-5-7-7-7-7---------5-5-5-5-5-5-5-5-5-5-5-5------------\
A|-3-3-3-3-3-3-3-5-5-5-5-5-7b5b3-5-5-5-5-5-5-5-5-3-3-3-3-3-5b3b4b---\
E|-------------------------------3-3-3-3-3-3-3-3--------------------\

e|------------------------------------------------------------------|
B|------------------------------------------------------------------|
G|-----------------4-4-4-4------------------------------------------|
D|-3-3-3-3-3-3-3-3-4-4-4-4----------2~--4~--5~----------5~--8~--9~--|
A|-3-3-3-3-3-3-3-3-2-2-2-2-2-3b2b0-—2~--4~--5~--------2-3~--6~--7~--|
E|-1-1-1-1-1-1-1-1------------------0~--2~--3~--0-2-3---------------|

Guitar 1 – repeat verse x2

Guitar 2
e|-------------------------------|
B|-------------------------------|
G|-------------------------------|
D|-4-5-7-5-4-2-1-1-2-1—5---4-----|
A|-------------------------------|
E|-------------------------------|
 …you should’ve raised a baby girl…





e|------------------------------------------------------------------\
B|------------------------------------------------------------------\
G|-5-5-5-5-5-5-5-7-7-7-7-------------------------5-5-5-5------------\
D|-5-5-5-5-5-5-5-7-7-7-7---------5-5-5-5-5-5-5-5-5-5-5-5------------\
A|-3-3-3-3-3-3-3-5-5-5-5-5-7b5b3-5-5-5-5-5-5-5-5-3-3-3-3-3-5b3b4b---\
E|-------------------------------3-3-3-3-3-3-3-3--------------------\

e|------------------------------------------REPEAT-1x--||-after repeat-|
B|-----------------------------------------------------||--------------|
G|-----------------4-4-4-4-----------------------------||--------------|
D|-3-3-3-3-3-3-3-3-4-4-4-4----------2~--4~--5~---------||-5~--8~--9~---|
A|-3-3-3-3-3-3-3-3-2-2-2-2-2-3b2b0-—2~--4~--5~--------2||-3~--6~--7~---|
E|-1-1-1-1-1-1-1-1------------------0~--2~--3~--0-2-3--||--------------|

BRIDGE PART I

Both guitars
e|--------------------------------------------------------------------\
B|--------------------------------------------------------------------\
G|-99-9b(10)9—-x5--1212-15b-88-8b(9)8-88-8b(9)8--99-9b(10)—99-9b(10)9-\
D|--------------------------------------------------------------------\
A|--------------------------------------------------------------------\
E|--------------------------------------------------------------------\

e|-------------------------------------------|
B|-------------------------------------------|
G|-14-12-11-—12-11-9—-99-9b(10)9—88-8b(9)—-9-|
D|-------------------------------------------|
A|-------------------------------------------|
E|-------------------------------------------|

BRIDGE PART II

Both guitars

e|-----------------------------------------|
B|----------------x2-----------------------|
G|-----------------------------------------|
D|-----------------------------------------|
A|---~7-—0----------7~--0~--------7~--0~---|
E|-0---------7~--0---------7~--0~--------7~|

e|------First ending-------------------|
B|-------------------------------------|
G|-------------------------------------|
D|-------------------------------------|
A|-2b-3b---2b-3b-1~--2b-3b-----2-0-----|
E|-------5~-----------------5~-----3-2-|

e|---second ending----------------------------------|
B|--------------------------------------------------|
G|--------------------------------------------------|
D|--------------------------------------------------|
A|-2b-3b---2b-3b-1~--2b-3b----2~---0----------------|
E|-------5~----------------5~----------3~-----2~----|


BRIDGE PART III

Guitar 1
e|-------------------------22*-|
B|--4-4-4-------2-2-4-4-4------|
G|--4-4-4—-x4---2-2-4-4-4------|
D|-2---------------------------|
A|-------------0---2-----------|
E|-----------------------------|
…and if you would call me a sweetheart…

BRIDGE PART IIII

guitar one
e|----------------------------------------------------------|
B|-12b-12b-12b-10b-10b-10b-8b-8b-8b-5-3-1-0-1-3-0-1-3-0-00--|
G|----------------------------------------------------------|
D|----------------------------------------------------------|
A|----------------------------------------------------------|
E|----------------------------------------------------------|
…But this shit that I’ve done with this fuck of a gun…
(lower part is not rhythm! Its bass!)

OUTRO
both guitars
e|-------------------------------------------------------------------\
B|-------------------------6b(8)-------------------------------------\
G|-------------------------------------------------------------------\
D|-2-2-2-2-2-2-2-2-2-2-2-2-------2-2-2-7-7-7-9-9-9-9-9-9-7-7-7-9-9-9-\
A|-2-2-2-2-2-2-2-2-2-2-2-2-------2-2-2-7-7-7-9-9-9-9-9-9-7-7-7-9-9-9-\
E|-0-0-0-0-0-0-0-0-0-0-0-0-------0-0-0-5-5-5-7-7-7-7-7-7-5-5-5-7-7-7-\

We’re damned after all

e|------------------------------------------------------------------\
B|-------------------------------5*---------------------------------\
G|------------------------------------------------------------------\
D|-5-5-5-2-2-2-2-2-2-8-8-8-7-7-7----2-2-2-2-2-2-2-2-2-2-2-2-2-2-2-2-\
A|-5-5-5-2-2-2-2-2-2-8-8-8-7-7-7----2-2-2-2-2-2-2-2-2-2-2-2-2-2-2-2-\
E|-3-3-3-0-0-0-0-0-0-6-6-6-7-7-7----0-0-0-0-0-0-0-0-0-0-0-0-0-0-0-0-\

e|---------------------------------------------------------|
B|---------------------------------------------------------|
G|---------------------------------------------------------|
D|-7-7-7-9-9-9-9-9-9-7-7-7-7-9-9-9-5-5-5-2-2-2-2-2-2-9-9-9-|
A|-7-7-7-9-9-9-9-9-9-7-7-7-7-9-9-9-5-5-5-2-2-2-2-2-2-9-9-9-|
E|-5-5-5-7-7-7-7-7-7-5-5-5-5-7-7-7-3-3-3-0-0-0-0-0-0-7-7-7-|

Guitar one
e|-22*-----------22*-|
B|--------21*--------|
G|-------------------|
D|-------------------|
A|-------------------|
E|-------------------|


Guitar two

e|------------------------------------|
B|------------------------------------|
G|------------------------------------|
D|-2----------2---------2-----------2-|
A|-2----------2---------2-----------2-|
E|-0--000000000—000000000—0000000000--|
      PM......  PM......  PM.......

| /  slide up
| \  slide down
| h  hammer-on
| p  pull-off
| ~  vibrato
| *  harmonic
| .  Mute note
| b  Bend
============================================================================
comments
print report bad tab
3 comments total.
0 reply
gdrocks2230 1,304 wrote on November 7 2006, 04:17 pm

sounds awesome... one question... the piece right under "we're damned after all", about halfway through there's a chord that looks like "777---" did you mean "577---"? other than that i think it's pretty much perfect!

+1 reply
mu6ff6in6s 13 wrote on November 7 2006, 04:47 pm

I was the one who tabbed this I just accidentally didn't log in when I submitted it. XD

to gdrocks2230. Thats not a mistake, its supposed to be "777---". hope that helps.

0 reply
mibe 61 wrote on April 13 2008, 08:45 am

oh mama! awesome tab =)

I want to post or [tab]
guest
You may want to rate the tab now too:
select rating
Please do not post tabs as comments. Select "correction" instead!