Oops, an error
Loading. Please wait.

Mama Tab

version 4
version 4

Whole song

169,791 views 348 this week
16 commentsread comments
1 2 3 4 5
excellent!
x 54
add to favorites
launch autoscroll
font size
0
reset
how to read this tab
guitar tuner
Tab Pro tools
  • play this tab
  • loop segment
  • change instrument
  • show fretboard
  • metronome
×
Best way to learn
"Mama"
Autoscroll
slow
fast
+/-
esc
set tempo
stop
Contributor
TRACK NO. 9 - MAMA

UPDATES:
12/12/06 - Fixed Ray's part on the verse :)

Ins.:
	Gtr 1 – Frank Iero
	Gtr 2 – Ray Toro


I. INTRO (gets louder)

Gtr 2
e|-----------------------------------|-----------------------------------|
B|----8---8---8---8---8---8---8---8--|----8---8---8---8---7---7---7---7--|
G|----9---9---9---9---9---9---9---9--|----9---9---9---9---8---8---8---8--|
D|----9---9---9---9---9---9---9---9--|----9---9---9---9---9---9---9---9--|
A|--7---7---7---7---7---7---7---7----|--7---7---7---7-----9---9---9---9--|
E|-----------------------------------|------------------7---7---7---7----|
(continued)
e|-----------------------------------|-----------------------------------|
B|----5---5---7---7---3---3----------|----8---8---7---7---8---8---8---8--|
G|----5---5---8---8---4---4----------|----9---9---8---8---9---9---9---9--|
D|----7---7---9---9---5---5---9---9--|----9---9---9---9---9---9---9---9--|
A|----7---7---9---9---5---5---7---7--|----7---7---9---9-7---7---7---7----|
E|--5---5---7---7---3---3---0---0----|--0---0---7---7--------------------|


II. VERSE 1

Gtr 2 carries on playing the INTRO

Then,
Gtr 1 (comes in with the drums and bass guitar)
e|---------------------------------|-----------------------------------|
B|---------------------------------|-----------------------------------|
G|---------------------------------|-----------------------------------|
D|---------------------------------|----------5---5--------------------|
A|--7---7---7---7---7---7---7---7--|--7---7-----------6---6---6---7-9--|
E|---------------------------------|-----------------------------------|
(continued)
e|---------------------------------|-----------------------------------|
B|---------------------------------|-----------------------------------|
G|---------------------------------|-----------------------------------|
D|------------------7-5-4-5--------|-----------------------------------|
A|--7---7---9---9-----------7---7--|--7---7---9---9---7----------------|
E|---------------------------------|-----------------------------------|


III. CHORUS

Both guitars (?)
e|-----------------------------------|-----------------------------------|
B|-----------------------------------|-----------------------------------|
G|--5-5-5-5-5-5-5-5-7-7-7-7----------|------------------5-5-5-5----------|
D|--5-5-5-5-5-5-5-5-7-7-7-7----------|--5-5-5-5-5-5-5-5-5-5-5-5----------|
A|--3-3-3-3-3-3-3-3-5-5-5-5-5-7-5-0--|--5-5-5-5-5-5-5-5-3-3-3-3-3-5-3-0--|
E|-----------------------------------|--3-3-3-3-3-3-3-3------------------|
(continued)
e|-----------------------------------|-----------------------------------|
B|-----------------------------------|-----------------------------------|
G|--------------5---4-4-4-4-4-4-4-4--|-----------------------------------|
D|--3-3-3-3-3---5---4-4-4-4-4-4-4-4--|--2~~~~---4~~~~---5~~~~------------|
A|--3-3-3-3-3---3---2-2-2-2-2-2-2-2--|--2~~~~---5~~~~---5~~~~---------2--|
E|--1-1-1-1-1------------------------|--0~~~~---2~~~~---3~~~~---0-2-3----|

(POST-CHORUS)
Gtr 1
e|-------------------------------<5>~~--|
B|---------------------------<5>--------|
G|--5~~~~---8~~~~---9~~~~--4------------|
D|--x-------x-------x-------------------|
A|--3~~~~---6~~~~---7~~~~---------------|
E|--------------------------------------|
Gtr 2
e|--------------------------------------|
B|-------------------------8~~~~--------|
G|--5~~~~---8~~~~---9~~~~--9~~~~--------|
D|--x-------x-------x-------------------|
A|--3~~~~---6~~~~---7~~~~---------------|
E|--------------------------------------|


IV. VERSE 2

Gtr 2 does the same in VERSE 1

Gtr 1 (comes in with the drums and bass guitar)
e|---------------------------------|-----------------------------------|
B|---------------------------------|-----------------------------------|
G|---------------------------------|-----------------------------------|
D|---------------------------------|----------5---5--------------------|
A|--7---7---7---7---7---7---7---7--|--7---7-----------6---6---6---7-9--|
E|---------------------------------|-----------------------------------|
(continued)
e|-----------------------------------|---------------------------------|
B|-----------------------------------|---------------------------------|
G|-----------------------------------|---------------------------------|
D|------------------7-5-4-5-4-5-4----|---------------------------------|
A|--7---7---9---9-----------------7--|--7---7---6---4-6-7--------------|
E|-----------------------------------|---------------------------------|
(continued)
e|---------------------------------|---------------------------------|
B|---------------------------------|---------------------------------|
G|---------------------------------|---------------------------------|
D|--------------4-5-7-5-4----------|------4-5-7-5-4------------------|
A|--7---7---7-7-----------6-7---7--|--7-7-----------6-7---6---7---9--|
E|---------------------------------|---------------------------------|
(continued)
e|---------------------------------|---------------------------------|
B|---------------------------------|---------------------------------|
G|---------------------------------|---------------------------------|
D|----------4---4---7-5-4-5--------|----------7-5-4------------------|
A|--7---7-------------------7---7--|--7---7---------6-7--------------|
E|---------------------------------|---------------------------------|

(Repeat CHORUS 2x then POST CHORUS)


V. BRIDGE 1

Gtr 1
e|--------6x--------|----------------------|---------------------------------|
B|------------------|----------------------|---------------------------------|
G|--xx-9--xx--9/10--|--12-12-8-8-8-9-11-8--|--9-9-11111112141211121111-9998--|
D|--xx-x--xx--x-----|---x--x-x-x-x-x--x-x--|--x-x--x-x-x-x-x-x-x-x-x-x-xxxx--|
A|--xx-7--xx--7-----|--10-10-6-6-6-7--9-6--|--7-7--9-9-9101210-910-9-9-7776--|
E|------------------|----------------------|---------------------------------|
(continued)
e|----------------------|
B|----------------------|
G|--7-8-9~~~------------|
D|--x-x-x---------------|
A|--5-6-7~~~------------|
E|----------------------|
Gtr 2
e|---(?)---|------------|
B|--times--|------------|
G|------4--|------------|
D|--2---4--|--5-4-2~~~--|
A|--2---2--|--5-5-2-----|
E|--0------|--3-2-0~~~--|


VI. BRIDGE 2

Gtr 1
e|-----------------------------------|-----------------------------------|
B|-----------------------------------|-----------------------------------|
G|------2-4-----2-4-----2-4-----2-4--|--4-5-2~--4-5-3~--4-5-2~--4-2------|
D|--2-2-2-4-2-2-2-4-2-2-2-4-2-2-2-4--|--4-5-2~--4-5-3~--4-5-2~--4-2-5-4--|
A|--2-2-0-2-2-2-0-2-2-2-0-2-2-2-0-2--|--2-3-0~--2-3-1~--2-3-0~--2-0-5-4--|
E|--0-0-----0-0-----0-0-----0-0------|------------------------------3-2--|
Gtr 2
e|-----------------------------------|-----------------------------------|
B|-----------------------------------|-----------------------------------|
G|-----------------------------------|-----------------------------------|
D|----2-------2-------2-------2------|-----------------------------------|
A|------0-2-----0-2-----0-2-----0-2--|--2-3-0~--2-3-1~--2-3-0~--2-0------|
E|--0-------0-------0-------0--------|------------------------------3-2--|

(Repeat ^ ^ ^ 2x, last part is a little slower)

Now, in the part where Liza Minneli sings, there is a guitar playing (?)
And I can’t seem to tab it :( ...
All I know is that the harmonic is in the 16th fret. :)

Then,
Gtr 2 (when he says “but there’s shit that...”
e|-------------------------------------------|----------------------|
B|--12-12-12-10-10-10-8-8-8------------------|----------------------|
G|--------------------------9-7--------------|----------------------|
D|------------------------------7-9-10-12-9--|--10-12-7-9-9-9-9~~~--|
A|--------------------------fast part--------|----------------------|
E|-------------------------------------------|----------------------|


VII. OUT-CHORUS

Both guitars (?)
e|-----------------------------------|-----------------------------------|2x
B|-----------------------------------|-----------------------------------|
G|-----------------------------------|-----------------------------------|
D|--2-2-2-2-2-2-2-2-2-2-2-2-2-2-2-7--|--7-7-9-9-9-9-9-9-7-7-7-9-9-9-5-5--|
A|--2-2-2-2-2-2-2-2-2-2-2-2-2-2-2-7--|--7-7-9-9-9-9-9-9-7-7-7-9-9-9-5-5--|
E|--0-0-0-0-0-0-0-0-0-0-0-0-0-0-0-5--|--5-5-7-7-7-7-7-7-5-5-5-7-7-7-3-3--|

Then,
1st ending
e|-----------------------------------|
B|-----------------------------------|
G|-----------------------------------|
D|--5-2-2-2-2-2-2-8-8-8-9-9-9-9-9-9--|
A|--5-2-2-2-2-2-2-9-9-9-9-9-9-9-9-9--|
E|--3-0-0-0-0-0-0-6-6-6-7-7-7-7-7-7--|

2nd ending
Gtr 1
e|------------------------<5>-----<7>---------<5>------|
B|-----------------------------------------------------|
G|-----------------------------------------------------|
D|--5-2-2-2-2-2-2-9-9-9-----------------------------2--|
A|--5-2-2-2-2-2-2-9-9-9-----------------------------2--|
E|--3-0-0-0-0-0-0-7-7-7-----------------------------0--|
Gtr 2
e|-----------------------------------------|-----------|
B|-----------------------------------------|-----------|
G|-----------------------------------------|-----------|
D|--5-2-2-2-2-2-2-9-9-9-2-------2-------2--|--------2--|
A|--5-2-2-2-2-2-2-9-9-9-2-------2-------2--|--------2--|
E|--3-0-0-0-0-0-0-7-7-7-0-0000000-0000000--|--0000000--|
comments
print report bad tab
16 comments total. Showing first comments.
+3 reply
jjrawson wrote on November 12 2006, 06:55 am

the liza minelli bit is just the regular verse agen, then when gerard comes in it just continues as the verse does

0 reply
freshofftheboat wrote on March 13 2007, 03:27 pm

awesome tab =]

+1 reply
punk8080@aol.co wrote on March 25 2007, 09:36 pm

thanks alot

I want to post or [tab]
guest
You may want to rate the tab now too:
select rating
Please do not post tabs as comments. Select "correction" instead!