Oops, an error
Loading. Please wait.

My Way Home Is Through You Tab

version 1
version 1

Whole song

Interactive

16,554 views 45 this week
17 commentsread comments
1 2 3 4 5
excellent!
x 17
add to favorites
launch autoscroll
font size
0
reset
how to read this tab
guitar tuner
Tab Pro tools
  • play this tab
  • loop segment
  • change instrument
  • show fretboard
  • metronome
×
Best way to learn
"My Way Home Is Through You"
Autoscroll
slow
fast
+/-
esc
set tempo
stop
Contributor
Song Title: My Way Home Is Through You
Artist: My Chemical Romance
Album: Famous Last Words (Single)


Tuning: Standard

Ins.:
	Gtr 1 – Frank Iero
	Gtr 2 – Ray Toro


I. INTRO (0:01 – 0:07)

Gtr 
e|------------------------|
B|-------------<7>-<5>~~--|
G|------------------------|
D|------<7>~~-------------|
A|------------------------|
E|--<5>-------------------|

Gtr 2 (not sure)
e|------------------------------------|-----------------------------------|
B|------------------1111111111111111--|-----------------------------------|
G|--4-4-4-4-4-4-4-4/1111111111111111--|--7-7-7-7-7-7-7-7-7/9-9-9-9-9-9-9--|
D|--x-x-x-x-x-x-x-x--x-x-x-x-x-x-x-x--|--x-x-x-x-x-x-x-x-x-x-x-x-x-x-x-x--|
A|--2-2-2-2-2-2-2-2/-9-9-9-9-9-9-9-9--|--5-5-5-5-5-5-5-5-5/7-7-7-7-7-7-7--|
E|------------------------------------|-----------------------------------|


II. VERSE 1 (0:08 – 0:25)

Both guitars
e|-----------------------------------|-----------------------------------|2x
B|-----------------------------------|-----------------------------------|
G|--4-4-4-4-4-4-4-4------------------|--7-7-7-7-7-7-7-7------------------|
D|--4-4-4-4-4-4-4-4-4-4-4-4-4-4-4-4--|--7-7-7-7-7-7-7-7-5-5-5-5-4-4-4-4--|
A|--2-2-2-2-2-2-2-2-4-4-4-4-4-4-4-4--|--5-5-5-5-5-5-5-5-5-5-5-5-4-4-4-4--|
E|------------------2-2-2-2-2-2-2-2--|------------------3-3-3-3-2-2-2-2--|

On 0:16, Gtr 1 changes to this (while Gtr 2 continues ^^^ riff):
e|-----------------------------------|-----------------------------------|
B|-----------------------------------|-----------------------------------|
G|--4-4-4-4-4-4-4-4-7-7-7-7-7-7-7-7--|--9-9-9-9-9-9-9-9-7-7-7-7-3-3-3-3--|
D|--x-x-x-x-x-x-x-x-x-x-x-x-x-x-x-x--|--x-x-x-x-x-x-x-x-x-x-x-x-x-x-x-x--|
A|--2-2-2-2-2-2-2-2-5-5-5-5-5-5-5-5--|--7-7-7-7-7-7-7-7-5-5-5-5-1-1-1-1--|
E|-----------------------------------|-----------------------------------|
(continued)
e|-----------------------------------|-------------------------------------|
B|-----------------------------------|-------------------------------------|
G|--4-4-4-4-4-4-4-4-7-7-7-7-7-7-7-7--|--9-9-9-9-9-9-9-9/121212\1111111111--|
D|--x-x-x-x-x-x-x-x-x-x-x-x-x-x-x-x--|--x-x-x-x-x-x-x-x--x-x-x--x-x-x-x-x--|
A|--2-2-2-2-2-2-2-2-5-5-5-5-5-5-5-5--|--7-7-7-7-7-7-7-7/101010\-9-9-9-9-9--|
E|-----------------------------------|-------------------------------------|


III. CHORUS (0:25 – 0:44)

Gtr 1
e|---------------------------|------------------------------------|2x
B|---------------------------|------------------------------------|then
G|--7-7----1111111111111111--|--9-9-9-9-9-9-9-9/11111111\9-9-9-9--|below
D|--x-x-----x-x-x-x-x-x-x-x--|--x-x-x-x-x-x-x-x--x-x-x-x-x-x-x-x--|
A|--5-5-----9-9-9-9-9-9-9-9--|--7-7-7-7-7-7-7-7/-9-9-9-9\7-7-7-7--|
E|---------------------------|------------------------------------|
Gtr 1 – first ending
e|------------------------------------|------------------------------------|
B|------------------------------------|------------------------------------|
G|--7-7-7-7-7-7-7-7/1111111111111111--|--9-9-9-9-9-9-9-9/12121111\9-9-9-9--|
D|--x-x-x-x-x-x-x-x--x-x-x-x-x-x-x-x--|--x-x-x-x-x-x-x-x--x-x-x-x-x-x-x-x--|
A|--5-5-5-5-5-5-5-5/-9-9-9-9-9-9-9-9--|--7-7-7-7-7-7-7-7/1010-9-9\7-7-7-7--|
E|------------------------------------|------------------------------------|
Gtr 1 – second ending
e|------------------------------------|------------------------------------|
B|------------------------------------|------------------------------------|
G|--7-7-7-7-7-7-7-7/1111111111111111--|--9-9-9-9-9-9-9-9/11111111\9-9-9-9--|
D|--x-x-x-x-x-x-x-x--x-x-x-x-x-x-x-x--|--x-x-x-x-x-x-x-x--x-x-x-x-x-x-x-x--|
A|--5-5-5-5-5-5-5-5/-9-9-9-9-9-9-9-9--|--7-7-7-7-7-7-7-7/-9-9-9-9\7-7-7-7--|
E|------------------------------------|------------------------------------|

Gtr 2
e|--------------------------|-----------------------------------|
B|--------------------------|-----------------------------------|
G|--4-4---------------------|-----------------------------------|
D|--4-4----4-4-4-4-4-4-4-4--|--5-5-5-5-5-5-5-5-7-7-7-7-7-7-7-7--|
A|--2-2----4-4-4-4-4-4-4-4--|--5-5-5-5-5-5-5-5-7-7-7-7-7-7-7-7--|
E|---------2-2-2-2-2-2-2-2--|--3-3-3-3-3-3-3-3-5-5-5-5-5-5-5-5--|
(continued)
e|-----------------------------------|-----------------------------------|2x
B|-----------------------------------|-----------------------------------|
G|--4-4-4-4-4-4-4-4------------------|-----------------------------------|
D|--4-4-4-4-4-4-4-4-4-4-4-4-4-4-4-4--|--5-5-5-5-5-5-5-5-7-7-7-7-7-7-7-7--|
A|--2-2-2-2-2-2-2-2-4-4-4-4-4-4-4-4--|--5-5-5-5-5-5-5-5-7-7-7-7-7-7-7-7--|
E|------------------2-2-2-2-2-2-2-2--|--3-3-3-3-3-3-3-3-5-5-5-5-5-5-5-5--|


IV. POST – CHORUS (0:44 – 0:53)

Gtr 1
e|------------------------------------|-----------------------------------|
B|------------------1111111111111111--|-----------------------------------|
G|--4-4-4-4-4-4-4-4/1111111111111111--|--7-7-7-7-7-7-7-7------------------|
D|--x-x-x-x-x-x-x-x--x-x-x-x-x-x-x-x--|--x-x-x-x-x-x-x-x-5-5-5-5-4-4-4-4--|
A|--2-2-2-2-2-2-2-2/-9-9-9-9-9-9-9-9--|--5-5-5-5-5-5-5-5-x-x-x-x-x-x-x-x--|
E|------------------------------------|------------------3-3-3-3-2-2-2-2--|
(continued)
e|------------------------------------|------------------------------------|
B|------------------------------------|------------------------------------|
G|--4-4-4-4-4-4-4-4/1010101010101010--|--7-7-7-7-7-7-7-7-7/9-9-9/10101010--|
D|--x-x-x-x-x-x-x-x--x-x-x-x-x-x-x-x--|--x-x-x-x-x-x-x-x-x-x-x-x--x-x-x-x--|
A|--2-2-2-2-2-2-2-2/-8-8-8-8-8-8-8-8--|--5-5-5-5-5-5-5-5-5/7-7-7/-8-8-8-8--|
E|------------------------------------|------------------------------------|

Gtr 2
e|-----------------------------------|-----------------------------------|2x
B|-----------------------------------|-----------------------------------|
G|--4-4-4-4-4-4-4-4------------------|--7-7-7-7-7-7-7-7------------------|
D|--4-4-4-4-4-4-4-4-4-4-4-4-4-4-4-4--|--7-7-7-7-7-7-7-7-5-5-5-5-4-4-4-4--|
A|--2-2-2-2-2-2-2-2-4-4-4-4-4-4-4-4--|--5-5-5-5-5-5-5-5-5-5-5-5-4-4-4-4--|
E|------------------2-2-2-2-2-2-2-2--|------------------3-3-3-3-2-2-2-2--|



V. VERSE 2 (0:53 – 1:11)

Gtr 1
e|----------------------|--------------------------------|
B|----------------------|--------------------------------|
G|--4~~~~---------------|--------------------------------|
D|--4~~~~---------------|-----------------//pickslide//--|
A|--2~~~~---------------|--------------------------------|
E|----------------------|--------------------------------|
Gtr 2 (left speaker, start on 0:57)
e|---------------18-19--|--18----------------------------|
B|---------17~~---------|-----17-------------------------|
G|------16--------------|--------16----------------------|
D|--/16-----------------|-----------16~~--//pickslide//--|
A|----------------------|--------------------------------|
E|----------------------|--------------------------------|
(I think while in that ^^^ part, there’s another guitar playing in the right speaker. Please comment here.)

Both guitars (start on 1:02)
e|-----------------------------------|--------------------------------|2x
B|-----------------------------------|--------------------------------|
G|-----------------------------------|--------------------------------|
D|--4-4-4-4-4-4-4-4------------------|--7-7-7-7-7-7-7-7-----5------4--|
A|--2-2-2-2-2-2-2-2-4-4-4-4-4-4-4-4--|--5-5-5-5-5-5-5-5-5-5-5--4-4-4--|
E|------------------2-2-2-2-2-2-2-2--|------------------3-3-3--2-2-2--|
PM| . . . . . . . . . . . . . . . .  |  . . . . . . . . . .    . .    |


[REPEAT CHORUS – (1:12 – 1:30)]


VI. BRIDGE (1:30 – 1:57)

Gtr 1
e|-------------------------------|-------------------------------|
B|-------------------------------|-------------------------------|
G|--------------4-4-4--4-4-4--4--|-------------------------------|
D|--------------x-x-x--x-x-x--x--|--5-5--5-5-5--5-2-2--2-2-2--2--|
A|--------------2-2-2--2-2-2--2--|--x-x--x-x-x--x-x-x--x-x-x--x--|
E|-------------------------------|--3-3--3-3-3--3-0-0--0-0-0--0--|
Gtr 2
e|-------------------------------|-------------------------------|
B|-------------------------------|-------------------------------|
G|--4-4--4-4-4-------------------|-------------------------------|
D|--x-x--x-x-x----------------5--|--5-5--5-5-5--5-2-2--2-2-2--2--|
A|--2-2--2-2-2----------------x--|--x-x--x-x-x--x-x-x--x-x-x--x--|
E|----------------------------3--|--3-3--3-3-3--3-0-0--0-0-0--0--|

Both guitars
e|-------------------------------|-------------------------------|repeat
B|-------------------------------|-------------------------------|several
G|--4-4--4-4-4--4-4-4--4-4-4--4--|-------------------------------|times
D|--x-x--x-x-x--x-x-x--x-x-x--x--|--5-5--5-5-5--5-2-2--2-2-2--2--|
A|--2-2--2-2-2--2-2-2--2-2-2--2--|--x-x--x-x-x--x-x-x--x-x-x--x--|
E|-------------------------------|--3-3--3-3-3--3-0-0--0-0-0--0--|

On 1:40, Gtr 1 changes to this:
e|--------------------------------|----------------------------------|repeat
B|--------------------------------|----------------------------------|
G|--1616-161616-161919-191919-16--|--1616-161616-161919191919191919--|times
D|---x-x--x-x-x--x-x-x--x-x-x--x--|---x-x--x-x-x--x-x-x-x-x-x-x-x-x--|
A|--1414-141414-161717-171717-14--|--1414-141414-141717171717171717--|
E|--------------------------------|----------------------------------|
Then,
e|--------------------------------|-----------------------------------|
B|--------------------------------|-----------------------------------|
G|--1616-161616-161919-191919-16--|--4-4/7-7-9-9/10/1111111111111111--|
D|---x-x--x-x-x--x-x-x--x-x-x--x--|--x-x-x-x-x-x--x--x-x-x-x-x-x-x-x--|
A|--1414-141414-161717-171717-14--|--2-2/5-5-7-7/-8/-9-9-9-9-9-9-9-9--|
E|--------------------------------|-----------------------------------|


VII. SOLO (1:58 – 2:07)

Gtr 1
e|-----------------------------------|-----------------------------------|
B|-----------------------------------|-----------------------------------|
G|--4-4-4-4-4-4-4-7-7-7-7-7-7-7-7-7--|-----------------------------------|
D|--4-4-4-4-4-4-4-7-7-7-7-7-7-7-7-7--|--7-7-7-7-7-7-7-7-9-9-9-9-7-7-7-7--|
A|--2-2-2-2-2-2-2-5-5-5-5-5-5-5-5-5--|--7-7-7-7-7-7-7-7-9-9-9-9-7-7-7-7--|
E|-----------------------------------|--5-5-5-5-5-5-5-5-7-7-7-7-5-5-5-5--|
(continued)
e|-----------------------------------|----------------------------------|
B|-----------------------------------|----------------------------------|
G|--4-4-4-4-4-4-4-7-7-7-7-7-7-7-7-7--|-----[------palm-muted-^_^-----]--|
D|--4-4-4-4-4-4-4-7-7-7-7-7-7-7-7-7--|--7-------------------------------|
A|--2-2-2-2-2-2-2-5-5-5-5-5-5-5-5-5--|--7--7-7-7-7-7-7-7-7-7-7-7-7-7-7--|
E|-----------------------------------|--5--5-5-5-5-5-5-5-5-5-5-5-5-5-5--|

Gtr 2 (not sure)
e|--------------------------------------|
B|--------------------------10~---------|
G|--9^(11)-9^(11)-11p9p7-11-----11p9p7--|
D|--------------------------------------|
A|--------------------------------------|
E|--------------------------------------|
(continued)
e|--------------------------------------|----------------------|
B|--------------------------------------|----------------------|
G|--9^(11)----11p9p7--------------------|--------7~-7~--7-7----|
D|---------7~--------9~-9~-9p7p5-7~-7~--|--4p2h4------------7--|
A|--------------------------------------|----------------------|
E|--------------------------------------|----------------------|
(continued)
e|-----------------------------------------------------|-------|
B|-----------------------------------------------------|-------|
G|--9/11—11p9p7h9p7------------------------------------|-------|
D|------------------9p7h9p7p5h7------------------------|-------|
A|------------------------------9p7p5h7p5h7p5----------|--2~~--|
E|--------------------------------------------7p5p3p2--|-------|

[REPEAT CHORUS – (2:07 – 2:25)]

VIII. OUTRO (2:26 - end)

Gtr 1
e|-------------------------------------|------------------------------------|4x
B|-------------------------------------|------------------------------------|
G|--1414121211111111/1414121211111111--|--9-9-9-9-9-9-9-9/1212121211111111--|
D|---x-x-x-x-x-x-x-x--x-x-x-x-x-x-x-x--|--x-x-x-x-x-x-x-x--x-x-x-x-x-x-x-x--|
A|--12121010-9-9-9-9/12121010-9-9-9-9--|--7-7-7-7-7-7-7-7/10101010-9-9-9-9--|
E|-------------------------------------|------------------------------------|
(I think Gtr 1 changes to another riff again after 2x repeat, not sure.)

Gtr 2
e|-----------------------------------|-----------------------------------|4x
B|-----------------------------------|-----------------------------------|
G|--4-4-4-4-4-4-4--------------------|-----------------------------------|
D|--4-4-4-4-4-4-4-4-4-4-4-4-4-4-4-4--|--5-5-5-5-5-5-5-5-7-7-7-7-7-7-7-7--|
A|--2-2-2-2-2-2-2-4-4-4-4-4-4-4-4-4--|--5-5-5-5-5-5-5-5-7-7-7-7-7-7-7-7--|
E|----------------2-2-2-2-2-2-2-2-2--|--3-3-3-3-3-3-3-3-5-5-5-5-5-5-5-5--|

End on:

Gtr 1
e|------------------|
B|------------------|
G|--7~~--12-14-9~~--|
D|--x-----x--x-x----|
A|--5~~--10-12-7~~--|
E|------------------|
Gtr 2
e|------------------|
B|------------------|
G|--4~~--7~~--------|
D|--4~~--7~~---7~~--|
A|--2~~--5~~---7~~--|
E|-------------5~~--|
comments
print report bad tab
17 comments total. Showing first comments.
0 reply
glennthrower wrote on January 25 2007, 07:03 am

Well done for another excellent tab, ur amazing at these, ill try,please do kill all your friends

0 reply
f1f2 wrote on January 25 2007, 07:28 am

Thanks! :)
I've finally done the outro, and I fixed the harmonic part intro and the solo as well :) The update is pending.

0 reply
stuart_cowan90 wrote on January 25 2007, 07:44 am

i think i love you mann

I want to post or [tab]
guest
You may want to rate the tab now too:
select rating
Please do not post tabs as comments. Select "correction" instead!