Oops, an error
Loading. Please wait.

Na Na Na Bass Tab

version 1
version 1

Whole song

Interactive

116,226 views 267 this week
10 commentsread comments
1 2 3 4 5
excellent!
x 51
add to favorites
launch autoscroll
font size
0
reset
guitar tuner
Tab Pro tools
  • play this tab
  • loop segment
  • change instrument
  • show fretboard
  • metronome
Autoscroll
slow
fast
+/-
esc
set tempo
stop
Contributor
Difficulty
novice
-------------------------------------------------------------------------------
			     NA NA NA - My Chemical Romance
-------------------------------------------------------------------------------

Tabbed By : slimk
e-mail: kenderickcraig@yahoo.com

Tuning: Standard

Intro (0:11):
G|-------------4------------------------------------------------|
D|6~646~646~646-64-------------4----------4~424~246~646-4-------|
A|----------------6~646~646~646-654~424~24----------------666666|
E|--------------------------------------------------------------|

Verse 1 (0:23):
G|-------------------------------------|
D|6(x16)------------4(x8)-6(x8)--------|
A|------6(x16)-4(x8)-------------666666|
E|-------------------------------------|

G|--------------------------------------|
D|6(x16)------------4(x8)-6(x8)--4444444|
A|------6(x16)-4(x8)--------------------|
E|--------------------------------------|

Chorus (0:46)
G|4(x16)-------------------------|
D|------4(x16)-6(x16)-2(x8)-5(x8)|
A|-------------------------------|
E|-------------------------------|

G|4(x16)-------------------------|
D|------4(x16)-6(x16)-2(x8)-5(x8)|
A|-------------------------------|
E|-------------------------------|

Pre-Verse (1:12):

G|------------|
D|6~646~646---|
A|------------|
E|------------|

Verse 2 (1:15)

G|-------------------------------------------|
D|6(x16)---------------4-4-4-4-6(x8)--4444444|
A|------6(x16)-4-4-4-4-----------------------|
E|-------------------------------------------|

Chorus (1:26):
G|4(x16)-------------------------|
D|------4(x16)-6(x16)-2(x8)-5(x8)|
A|-------------------------------|
E|-------------------------------|


G|4(x16)-------------------------|
D|------4(x16)-6(x16)-2(x8)-5(x8)|
A|-------------------------------|
E|-------------------------------|

Bridge (1:50)
G|----------------------------------|
D|6~--5~--4~--3~-1-2~--1~-----------|
A|--------------4--------------(/11)|
E|-------------------4~--2~4~~------|

G|----------------------------------|
D|6~--5~--4~--3~-1-2~--1~-----------|
A|--------------4-------------------|
E|-------------------4~--2~4~~------|

G|------------------------------------------------------|
D|6-6-6-6-5-5-5-5-4-4-4-4-3-3---1-2-2-2-2-4-4-4-4-6(x32)|
A|----------------------------4-------------------------|
E|------------------------------------------------------|

G|4(x16)-------------------------|
D|------4(x16)-6(x16)-2(x8)-5(x8)|
A|-------------------------------|
E|-------------------------------|

Chorus (2:42):
G|4(x16)-------------------------|
D|------4(x16)-6(x16)-2(x8)-5(x8)|
A|-------------------------------|
E|-------------------------------|

G|4-4-4-4-4-4-4-4--------------------------------|
D|----------------4-4-4-4-4-4-4-4-6-6-6-6-6-6-6-6|
A|-----------------------------------------------|
E|-----------------------------------------------|

G|------------------------4~-|
D|2~--5~--2~--5~--2~--5~-4---|
A|---------------------------|
E|---------------------------|

| /  slide up
| \  slide down
| h  hammer-on
| p  pull-off
| ~  vibrato
| +  harmonic
| x  Mute note
===============================================================================
comments
print report bad tab
10 comments total. Showing first comments. show 1 bad comment
0 reply
KrankerKarpfen wrote on September 24 2010, 10:17 am

why do you think so?

+1 reply
rcazzy wrote on September 24 2010, 01:49 pm

It's definitely called "Na Na Na (Na Na Na Na Na Na Na Na Na)!

Straight from the band's site.

I want to post or [tab]
guest
You may want to rate the tab now too:
select rating
Please do not post tabs as comments. Select "correction" instead!