Oops, an error
Loading. Please wait.

Na Na Na ukulele

version 1
version 1

Whole song

Interactive

9,005 views 42 this week
2 commentsread comments
1 2 3 4 5
x 13
add to favorites
×
Save as Personal and add changes to this tab that will be seen only by you. Learn more ›
×
You can save this tab as Personal to edit and correct it or add notes. All changes will be seen only by you. Learn more »
launch autoscroll
font size
0
reset
transpose
0
reset
display chords
guitar tuner
edit
Autoscroll
slow
fast
+/-
esc
set tempo
stop
Author
Difficulty
Unregistered
Strumming
There is no strumming pattern for this song yet. and get +5 IQ
G# D# C# F# E D#

e|-----------------|-----------------|-----------------|-----------------|
B|-----------------|-----------------|-----------------|-----------------|
G|-----------------|-----------4-----|-----------------|-----------------|
D|-6---6-4-6---6-4-|-6---6-4-6---6-4-|-----------------|-----------4-----|
A|-----------------|-----------------|-6---6-4-6---6-4-|-6---6-4-6---6-5-|
E|-----------------|-----------------|-----------------|-----------------|

e|-----------------|-----------------|-----------------|-----------------|
B|-----------------|-----------------|-----------------|-----------------|
G|-----------------|-----------------|-----------------|-----------------|
D|-----------------|-4---4---4---4-5-|-6---6-4-6---4---|---8-8-8-8-8-8-8-|
A|-4---4---4---4---|-------6---------|-----------------|---6-6-6-6-6-6-6-|
E|-------7-------7-|-----------------|-----------------|-----------------|


Na na-na-na, na-na-na-na-na-na-na-na-na

[Verse 1]
G#
Drugs, gimme drugs, gimme drugs
                                          D#
I don't need them but I'll sell what you got
                                     C#
Take the cash and I'll keep it eight legs to the wall
              F#
Hit the gas, kill 'em all
      G#                          D#
And we crawl, and we crawl, and we crawl
You be my detonator

[Verse 2]
G#
Love, gimme love, gimme love
                                       D#m
I don't need it but I'll take what I want
                                       C#
From your heart and I'll keep it in a bag
                            F#
In a box, put an X on the floor
                G#
Gimme more, gimme more, gimme more
D#
Shut up and sing it with me

[Chorus]
B
Na na-na-na, na-na-na-na-na-na-na-na-na
                            F#
From mall security to every enemy
G#m                       E          G
  We're on your property standing in V formation
B                                 F#
 let's blow an artery, eat plastic surgery
G#m                E             G
 Keep your apology give us more detonation

G#m

(More! Gimme more! Gimme more!)

[Verse 3]
                              G#
Oh, let me tell ya 'bout the sad man
                                       D#
Shut up and let me see your jazz hands
                        C#
Remember when you were a madman
                      F#
Thought you was Batman
                 G#
Hit the party with a gas can
  D#
Kiss me you animal

[Chorus]
B
Na na-na-na, na-na-na-na-na-na-na-na-na
                F#
You run the company.
                   G#m
F*** like A Kennedy
                        E            G
I think we'd rather be burning your information
B
Na na-na-na, na-na-na-na-na-na-na-na-na
                 F#
Lets blow and artery
               G#m
Eat plastic surgery
                          E              G
Keep your apology give us more detonation

[Bridge]
G#m                 G
And right here right now
F#m              C#
All the way in Battery City
E                 D                       G#
Little children, raise their open filthy palms
Like tiny daggers up to heaven
G#m         G                 F#
And all the juvee halls and Ritalin rats
      Fm                                E
Ask angels made from neon and f**cking garbage
G            G#m
Scream out "What will save us?"
And the sky opened up

                                  D#
Everybody wants to change the world
Bm                              C#
Everybody wants to change the world
     E            D#m             
But no one, no one wants to die
G#
Wanna try, wanna try, wanna try
     G#m
Wanna try, wanna try, oh
G#
I'll be your detonator

(B F# G#m E G)

[Chorus]
B
Na na-na-na, na-na-na-na-na-na-na-na-na
                  F#
Make no apologies
                  G#m
It’s death or victory
G#
On my authority 
E
Crash and burn
G
Young and loaded
B
Na na-na-na, na-na-na-na-na-na-na-na-na
                        F#
Drop like a bullet shell
                         G#m
Dress like a sleeper cell
                       E                  G
I'd rather go to hell than be in purgatory
E                    G
Cut my hair gag and bore me
E              G                B
Pull this pin let this world explode

            
            
Suggest correction
Creating personal tab
Creating personal tab
You can edit any tab online and save it as your Personal.

You can edit, replace or remove any tab part or add personal notes – all changes will be seen only by you.

Personal tabs can be accessed anytime from any device, even offline.
Learn more »
There is a new version of this tab from 3 days ago which you may like more. Go check it out:
comments
print report bad tab
2 comments total.
+4 reply
sopernatral 50 Mar 08, 2017 02:34 PM, edited on March 9 2017, 06:49 pm

the intro for ukulele is

A|-3--3-1-3--3-1-3--3-1-3-5-3-1-------------------------1-------|
E|-------------------------------3--3-1-3--3-1-3--3-1-3---3-2-1-|
C|--------------------------------------------------------------|
G|--------------------------------------------------------------|

A|------------1--1---1--1-2-3--3--3-1-3-1-|
E|-1---1--1--------3----------------------| and then C seven times
C|---3------3-----------------------------|
G|----------------------------------------|

guest
Wanna post a correction for this tab? Suggest correction