Oops, an error
Loading. Please wait.

Na Na Na Tab

version 2
version 2

Interactive

221,647 views 279 this week
12 commentsread comments
1 2 3 4 5
excellent!
x 170
add to favorites
launch autoscroll
font size
0
reset
how to read this tab
guitar tuner
Autoscroll
slow
fast
+/-
esc
set tempo
stop
Help us to improve Ultimate-Guitar.com Take our survey!
×
Author
-------------------------------------------------------------------------------
                           Na Na Na (Na Na Na Na Na Na Na Na Na)- My Chemical Romance
-------------------------------------------------------------------------------
Tabbed by: Lexy Baluyot


Tuning: Standard


[BEGINNING SOLO] 

"NA NA NA..." (play 2x)
e|---------------------------------------------------------------------------|
B|---------------------------------------------------------------------------|
G|---------------------------------------------------------------------------|
D|----------------------------------9----------------------------------------|
A|--11--11-9--11--11-9--11--11-9--11--11-9-----------------------------------|
E|-----------------------------------------11--11-9--11--11-9--11--11-9-11---|

e|---------------------------------------------------------------------------|
B|---------------------------------------------------------------------------|
G|-------------------------------------------------------8-8-8-8-8-8-8-------|
D|-------------------------------------------------------8-8-8-8-8-8-8-------|
A|-9---------------------9-9---9-9-10-11--11-9-11--9-----6-6-6-6-6-6-6-------|
E|----11-10-9--9-7-9-9-7-----11----------------------------------------------|


[VERSE 1] 

"Drugs! Gimme Drugs! Gimme Drugs..."
e|---------------------------------------------------------------------------|
B|---------------------------------------------------------------------------|
G|--13-------------------------------11------/12-13--------------------------|
D|--13-(x16)---13------\12-11--------11-(x8)-/12-13-(x9)---13----------------|
A|--11---------13-(x15)\12-11-(x8)---9-------/10-11--------13-(x7)-----------|
E|-------------11------\10-9-------------------------------11----------------|

"Love! Gimme Love! Gimme Love..."
e|---------------------------------------------------------------------------|
B|---------------------------------------------------------------------------|
G|--13-------------------------------11------/12-13--------11----------------|
D|--13-(x16)---13------\12-11--------11-(x8)-/12-13-(x9)---11-(x7)-----------|
A|--11---------13-(x15)\12-11-(x8)---9-------/10-11--------9-----------------|
E|-------------11------\10-9-------------------------------------------------|


[CHORUS] 

"NA NA NA...From mall security..." (play 2x)
e|---------------------------------------------------------------------------|
B|---------------------------------------------------------------------------|
G|-4-------------------------------1-----------------------------------------|
D|-4-(x16)----4-------/5-6---------2-(x8)--5---------------------------------|
A|-2----------4-(x15)-/5-6-(x16)---2-------5-(x8)----------------------------|
E|------------2-------/3-4-----------------3---------------------------------|


[MINI INTRO] 

"...More! Gimme More! Gimme More!"
e|----------------------------------------------------|
B|----------------------------------------------------|
G|-----------------------------8-11-8-11-8---13-------|
D|-------------------------------------------13-(x9)--|
A|--11--11-9--11--11-9--11--11---------------11-------|
E|----------------------------------------------------|


[VERSE 2] 

"Oh let me tell you bout the sad man..."
e|---------------------------------------------------------------------------|
B|---------------------------------------------------------------------------|
G|--13-------------------------------11------/12-13--------11----------------|
D|--13-(x16)---13------\12-11--------11-(x8)-/12-13-(x9)---11-(x7)-----------|
A|--11---------13-(x15)\12-11-(x8)---9-------/10-11--------9-----------------|
E|-------------11------\10-9-------------------------------------------------|


[CHORUS "You run..."]


[BRIDGE] 

"Right Here, Right Now..." (play 2x)
e|-----------------------|
B|-----------------------|
G|--------------1--------|
D|--6--5--4--3--2--4--6--|
A|--6--5--4--3--2--4--6--|
E|--4--3--2--1-----2--4--|

"Everybody wants to change the world..."
e|---------------------------------------------------------------------------|
B|---------------------------------------------------------------------------|
G|------------------------------1--------------------------------------------|
D|--6------5------4------3------2-(x4)-4------6------------------------------|
A|--6-(x4)-5-(x4)-4-(x4)-3-(x4)-2------4-(x4)-6-(x25)------------------------|
E|--4------3------2------1-------------2------4------------------------------|


[SOLO]

e|--------------------------------------------------------------------------7-9-11-9-7| 
B|--------------------------7-7--------------------------7-7-8--9-9--7--9-9-----------|
G|---8--8-6--8--8--8-8-8-6-8---8--6--6-4--6--6--6-6-6-4-6-----------------------------|
D|------------------------------------------------------------------------------------|
A|------------------------------------------------------------------------------------|
E|------------------------------------------------------------------------------------|

e|-------7~11~9-h7h9--------------------------------------------------------|
B|-9~-11~-------------------------------------------------------------------|
G|-----------------------4--------------------------------------------------|
D|-----------------------4--------------------------------------------------|
A|-----------------------2--------------------------------------------------|
E|--------------------------------------------------------------------------|


[CHORUS] "Make no apology..."(Play set only 1x then go to END)


[END]

e|-------------------------------------------------------------------------------------|
B|-------------------------------------------------------------------------------------|
G|-4-------------------------------1-------------1-------------1-------------4---------|
D|-4-(x16)----4-------/5-6---------2-(x4)-5------2-(x4)-5-(x4)-2-(x4)-5------4---------|
A|-2----------4-(x15)-/5-6-(x16)---2------5-(x4)-2------5------2------5-(x4)-2---------|
E|------------2-------/3-4----------------3-------------3-------------3----------------|

 



************************************

| h  Hammer-on
| /  Slide up
| \  Slide down
| ~  Vibrato
 
************************************
Suggest correction
What's this?
You can suggest a correction to this tab. Community and Mods will review your correction and vote to approve or reject it.
comments
print report bad tab
12 comments total. Showing first comments.
+8 reply
guitar-noob=P 92 wrote on October 31 2010, 10:34 am

the rythm is better in thsi tab but the lead parts are better on the other 5 star tab sorry :) good rythm parts though, the others tabs chords suck

+5 reply
dapinayroxtar31 328 wrote on November 2 2010, 12:17 am

@ guitar-noob=P
Thanks! Yeah, I'm not much of a lead guitarist. Guess it shows, huh? Haha :)

+6 reply
jamjam1997 17 wrote on November 23 2010, 02:14 pm

Pht dude that is sick :D 5*

guest
You may want to rate the tab now too:
select rating
Please do not post tabs as comments. Select "correction" instead!