Oops, an error
Loading. Please wait.

Na Na Na Bass Tab

version 3
version 3

Whole song

Interactive

7,552 views 33 this week
no commentswrite comment
1 2 3 4 5
excellent!
x 9
add to favorites
launch autoscroll
font size
0
reset
guitar tuner
Tab Pro tools
  • play this tab
  • loop segment
  • change instrument
  • show fretboard
  • metronome
Autoscroll
slow
fast
+/-
esc
set tempo
stop
Contributor
Difficulty
intermediate
Since 2 people requested tabs for this on my youtube video I decided to post them up 
here since all the other tabs of this song are not so great.

People have tabbed many different versions of the intro but I am positive this one is 
right since I watched a video lesson from My Chemical Romance themselves watch the video 
here http://www.youtube.com/watch?v=qFMBzQe7unQ

Watch my bass cover of this song!

http://www.youtube.com/watch?v=svhE106BGJ0

Also check out my youtube channel!

http://www.youtube.com/user/chrisistheazn?feature=mhee

Intro/Riff

G|-----------------|
D|-----------------|
A|-6-6-6-6-6-6-6---|
E|-----------------|

G|------------------------------------------------------------------------------|
D|-------------------------------9----------------------------------------------|
A|-11--11-9-11--11-9-11--11-9-11---11-9-------------------------------9---------|
E|--------------------------------------11--11-9-11--11-9-11--11-9-11---11-10---|

G|----------------------------------------------------------------------|
D|----------------------------------------------------------------------|
A|---------------9--9-6-9--9-10-11--11-9-11--9--------------------------|
E|-9--9-7-9--9-7--------------------------------11-11-11-11-11-11-9-----|

Verse 1

G|------------------------------------------------------------------------------------|
D|------------------------------------------------------------------------------------|
A|-11-11-11-11-11-11-11-11-11-11-11-11-11-11-11-11-6-6-6-6-6-6-6-6-6-6-6-6-6-6-6-5----|
E|------------------------------------------------------------------------------------|

G|------------------------------------------------------------------------------------|
D|------------------------------------------------------------------------------------|
A|-4-4-4-4-4-4-4-4-9-9-9-9-9-9-9-10-11-11-11-11-11-11-11-11-11-6-6-6-6-6-6-6----------|
E|------------------------------------------------------------------------------------|

G|------------------------------------------------------------------------------------|
D|------------------------------------------------------------------------------------|
A|-11-11-11-11-11-11-11-11-11-11-11-11-11-11-11-11-6-6-6-6-6-6-6-6-6-6-6-6-6-6-6-5----|
E|------------------------------------------------------------------------------------|

G|------------------------------------------------------------------------------------|
D|------------------------------------------------------------------------------------|
A|-4-4-4-4-4-4-4-4-9-9-9-9-9-9-9-10-11-11-11-11-11-11-11-11-11-9-9-9-9-9-9-9----------|
E|------------------------------------------------------------------------------------|

Chorus 1

G|----------------------------------------------------------------------|
D|----------------------------------------------------------------------|
A|-------------------------------9--9-9-9--9-9-9--9-9-9-9-9-9-----------|
E|-7--7-7-7--7-7-7--7-7-7-7-7-7-----------------------------------------|

G|----------------------------------------------------------------------|
D|----------------------------------------------------------------------|
A|-------------------------------7--7--7-----10--10--10-10-10-9---------|
E|-4--4-4-4--4-4-4--4-4-4-4-4-------------------------------------------|

G|----------------------------------------------------------------------|
D|----------------------------------------------------------------------|
A|-------------------------------9--9-9-9--9-9-9--9-9-9-11-11-11--------|
E|-7--7-7-7--7-7-7--7-7-7-7-7-7-----------------------------------------|

G|----------------------------------------------------------------------|
D|----------------------------------------------------------------------|
A|-------------------------------7--7--7--7--10--10--10--10-------------|
E|-4--4-4-4--4-4-4--4-4-4-4-4-4-----------------------------------------|

After-Chorus

G|---------------------------------------------------|
D|---------------------------------------------------|
A|--------------------------11--11-9-11--11-9-11\----|
E|---------------------------------------------------|

Verse 2

G|------------------------------------------------------------------------------------|
D|------------------------------------------------------------------------------------|
A|-11-11-11-11-11-11-11-11-11-11-11-11-11-11-11-11-6-6-6-6-6-6-6-6-6-6-6-6-6-6-6-5----|
E|------------------------------------------------------------------------------------|

G|------------------------------------------------------------------------------------|
D|------------------------------------------------------------------------------------|
A|-4---4---4---4---9---9---9---9-10-11-11-11-11-11-11-11-11---9-9-9-9-9-9-------------|
E|------------------------------------------------------------------------------------|

Chorus 2

G|----------------------------------------------------------------------|
D|----------------------------------------------------------------------|
A|-------------------------------9--9-9-9--9-9-9--9-9-9-9-9-9-----------|
E|-7--7-7-7--7-7-7--7-7-7-7-7-7-----------------------------------------|

G|----------------------------------------------------------------------|
D|----------------------------------------------------------------------|
A|-------------------------------7--7--7--7--10--10--10-10-10-9---------|
E|-4--4-4-4--4-4-4--4-4-4-4-4-------------------------------------------|

G|----------------------------------------------------------------------|
D|----------------------------------------------------------------------|
A|-------------------------------9--9-9-9--9-9-9--9-9-9-11-11-11--------|
E|-7--7-7-7--7-7-7--7-7-7-7-7-7-----------------------------------------|

G|----------------------------------------------------------------------|
D|----------------------------------------------------------------------|
A|-------------------------------7--7--7--7--10--10--10--10-------------|
E|-4--4-4-4--4-4-4--4-4-4-4-4-------------------------------------------|

Bridge

G|----------------------------------------------------------------------|
D|----------------------------------------------------------------------|
A|-11----10----9---11-9-8---4-6-7-------6-------------------------------|
E|----------------------------------4-------3--4----/16-----------------|

G|----------------------------------------------------------------------|
D|----------------------------------------------------------------------|
A|-11----10----9---11-9-8---4-6-7-------6-------------------------------|
E|----------------------------------4-------3--4------------------------|

G|----------------------------------------------------------------------|
D|----------------------------------------------------------------------|
A|-11-11-11-11-10-10-10-10-9-9-9-9-8-8-4-6-7-7-7-7-9-9-9-9--------------|
E|----------------------------------------------------------------------|

G|----------------------------------------------------------------------|
D|----------------------------------------------------------------------|
A|-11-11-11-11-11-11-11-11-11-11-11-11-11-9-9--11-11-11-11--------------|
E|----------------------------------------------------------------------|

(The notes below are played twice as fast as the notes on the top)

G|----------------------------------------------------------------------|
D|----------------------------------------------------------------------|
A|-9-11-11-11-11-11-11-11-9-11-11-11-9-11-11-11-9-11-11-11-11-----------|
E|----------------------------------------------------------------------|

Solo

G|----------------------------------------------------------------------|
D|----------------------------------------------------------------------|
A|----------------------------------------------------------------------|
E|-7--7-7-7--7-7-7--7-7-7-7-7-7--2--2-2-2--2-2-2--2-2-2-0-2-3-----------|

G|----------------------------------------------------------------------|
D|----------------------------------------------------------------------|
A|----------------------------2-----------------------------------------|
E|-4--4-0-4--4--4-4-4-4-4-0-4---0---0-0-0-0-0-0-3-3-3-3-3-3-3-3---------|

Chorus 3

G|----------------------------------------------------------------------|
D|----------------------------------------------------------------------|
A|-----------------------------9--9-9-9--9-9-9--9-9-9-11-11-11----------|
E|-7--7-7-7--7--7--7-7-7-7-7-7------------------------------------------|

G|----------------------------------------------------------------------|
D|----------------------------------------------------------------------|
A|-------------------------------7--7--7--7--10--10--10-10-10-9---------|
E|-4--4-4-4--4-4-4--4---4-4-4-------------------------------------------|


G|----------------------------------------------------------------------|
D|----------------------------------------------------------------------|
A|---------------------------------9---9---9---9---9---9---9-11-11-11---|
E|-7---7---7---7---7---7-0-7-0-7-0--------------------------------------|


G|---------------------------------------------------------------------------|
D|---------------------------------------------------------------------------|
A|---------------------------------7----10----7----10----7----7----10--------|
E|-4---4---4---4---4---4---4-0-4-0---------------------------------------7---|



| /  slide up
| \  slide down
| h  hammer-on
| p  pull-off
| ~  vibrato
| +  harmonic
| x  Mute note
===============================================================================
comments
print report bad tab
I want to post or [tab]
guest
You may want to rate the tab now too:
select rating
Please do not post tabs as comments. Select "correction" instead!