Oops, an error
Loading. Please wait.

Na Na Na Bass

version 3
version 3

Whole song

  • Simplifies the verses and choruses into generic ve... Show more

Interactive

124 views 12 this week
no commentswrite comment
1 2 3 4 5
3 more votes to show rating
add to favorites
launch autoscroll
font size
0
reset
guitar tuner
Autoscroll
slow
fast
+/-
esc
set tempo
stop
Author
Difficulty
novice
About this tab version
Simplifies the verses and choruses into generic versions and moves the riff to a basic pentatonic shape. Was this info helpful? Yes No
This version isn't exactly the same as the version MCR plays; I just included the intro/riff, a verse,
and the chorus

[Intro/Riff]
G|-----------------|
D|-----------------|
A|-6-6-6-6-6-6-6---|
E|-----------------|

G|-------------------------------4----------------------------------------------|
D|--6---6-4--6---6-4--6---6-4--6----6-4-------------------------------4---------|
A|---------------------------------------6---6-4--6---6-4--6---6-4--6----6--5---|
E|------------------------------------------------------------------------------|

G|----------------------------------------------------------------------|
D|--------------4--4-1-4--4--5--6---6-4--6--4---------------------------|
A|-4--4-2-4--2-4---------------------------------6--6--6--6--6--6--6----|
E|----------------------------------------------------------------------|

[Verse]
G|------------------------------------------------------------------------------------|
D|--6--6--6--6--6--6--6--6--6--6--6--6--6--6--6--6------------------------------------|
A|-------------------------------------------------6-6-6-6-6-6-6-6-6-6-6-6-6-6-6-5----|
E|------------------------------------------------------------------------------------|

G|------------------------------------------------------------------------------------|
D|-----------------4-4-4-4-4-4-4--5--6-6-6-6-6-6-6-6-6--------------------------------|
A|-4-4-4-4-4-4-4-4-------------------------------------6-6-6-6-6-6-6------------------|
E|------------------------------------------------------------------------------------|

G|------------------------------------------------------------------------------------|
D|6-6-6-6-6-6-6-6-6-6-6-6-6-6-6-6-----------------------------------------------------|
A|---------------------------------6-6-6-6-6-6-6-6-6-6-6-6-6-6-6-5--------------------|
E|------------------------------------------------------------------------------------|

G|------------------------------------------------------------------------------------|
D|------------------------------------------------------------------------------------|
A|-4-4-4-4-4-4-4-4-9-9-9-9-9-9-9-10-11-11-11-11-11-11-11-11-11-9-9-9-9-9-9-9----------|
E|------------------------------------------------------------------------------------|

[Chorus]
G|----------------------------------------------------------------------|
D|----------------------------------------------------------------------|
A|-------------------------------9--9-9-9--9-9-9--9-9-9-9-9-9-----------|
E|-7--7-7-7--7-7-7--7-7-7-7-7-7-----------------------------------------|

G|----------------------------------------------------------------------|
D|----------------------------------------------------------------------|
A|-------------------------------7--7--7-----10--10--10-10-10-9---------|
E|-4--4-4-4--4-4-4--4-4-4-4-4-------------------------------------------|

G|----------------------------------------------------------------------|
D|----------------------------------------------------------------------|
A|-------------------------------9--9-9-9--9-9-9--9-9-9-11-11-11--------|
E|-7--7-7-7--7-7-7--7-7-7-7-7-7-----------------------------------------|

G|----------------------------------------------------------------------|
D|----------------------------------------------------------------------|
A|-------------------------------7--7--7--7--10--10--10--10-------------|
E|-4--4-4-4--4-4-4--4-4-4-4-4-4-----------------------------------------|

[Post-Chorus]
G|---------------------------------------------------|
D|---------------------------6---6-4--6---6-4--6\----|
A|---------------------------------------------------|
E|---------------------------------------------------|


************************************

| \  Slide down

************************************
Suggest correction
Give kudos to tab author, rate the tab!
1 2 3 4 5
comments
print report bad tab
guest
You may want to rate the tab now too:
select rating
Wanna post a correction for this tab? Suggest correction