Oops, an error
Loading. Please wait.

Na Na Na Tab

version 3
version 3

Interactive

  • Simplified version designed for single guitar.
15,301 views 3 this week
1 commentread comment
1 2 3 4 5
worth learning
x 3
add to favorites
launch autoscroll
font size
0
reset
how to read this tab
guitar tuner
Autoscroll
slow
fast
+/-
esc
set tempo
stop
Help us to improve Ultimate-Guitar.com Take our survey!
×
Author
Difficulty
intermediate
Hello, people. This is Na Na Na (Na Na Na Na Na Na Na Na Na) from the upcoming 
album Danger Days: The True Lives of the Fabulous Killjoys. I think most of it 
should be right, but I wouldn't be surprised if some of it is different from the actual recording.

n - down stroke
v - up stroke
. - palm mute

intro:

   n n v    n n v    n n v    n v n v    n n v    n n v    n n v    n v n v    n n v 
|--------|--------|--------|----------|--------|--------|--------|----------|--------|
|--------|--------|--------|----------|--------|--------|--------|----------|--------|
|--------|--------|--------|----4-----|--------|--------|--------|----------|--------|
|--6-6-4-|--6-6-4-|--6-6-4-|--6---6-4-|--------|--------|--------|----4-----|--------|
|--------|--------|--------|----------|--6-6-4-|--6-6-4-|--6-6-4-|--6---6-5-|--4-4-2-|
|--------|--------|--------|----------|--------|--------|--------|----------|--------|
   
   n n v    n n v    n n v    n n v    n v   n n n       n n n n
|--------|--------|--------|--------|------|-----------|----------|
|--------|--------|--------|--------|------|-----------|----------|
|--------|--------|--------|--------|------|--8-8-8----|--8-8-8-8-|
|--------|--4-4---|--4-4-5-|--6-6-4-|--6-4-|--8-8-8----|--8-8-8-8-|  x2
|--4-4-2-|------6-|--------|--------|------|--6-6-6----|--6-6-6-6-|
|--------|--------|--------|--------|------|-----------|----------|


verses 1 & 2:

   n n v    n n v    n n v    n v n v    n n v    n n v    n n v    n v n v    n n v
|--------|--------|--------|----------|--------|--------|--------|----------|--------|
|--------|--------|--------|----------|--------|--------|--------|----------|--------|
|--------|--------|--------|----------|--8-8-8-|--8-8-8-|--8-8-8-|--8-8-8-7-|--6-6-6-|
|--6-6-6-|--6-6-6-|--6-6-6-|--6-6-6-6-|--8-8-8-|--8-8-8-|--8-8-8-|--8-8-8-7-|--6-6-6-|
|--6-6-6-|--6-6-6-|--6-6-6-|--6-6-6-6-|--6-6-6-|--6-6-6-|--6-6-6-|--6-6-6-5-|--4-4-4-|
|--4-4-4-|--4-4-4-|--4-4-4-|--4-4-4-4-|--------|--------|--------|----------|--------|

   n n v    n  n  v     n  n  v     n n v    n v    n n v   n v n v
|--------|-----------|-----------|--------|------|--------|---------|
|--------|-----------|-----------|--------|------|--------|---------|
|--6-6-6-|--11-11-11-|--11-11-12-|--------|------|--8-8-8-|-8-8-8-8-|
|--6-6-6-|--11-11-11-|--11-11-12-|--6-6-4-|--6-4-|--8-8-8-|-8-8-8-8-|  x2
|--4-4-4-|--9--9--9--|--9--9--10-|--6-6-4-|--6-4-|--6-6-6-|-6-6-6-6-|
|--------|-----------|-----------|--4-4-2-|--4-2-|--------|---------|


chorus:

   n n v    n n v    n n v    n v n v    n n v    n n v    n n v    n v n v    n n v  
|--------|--------|--------|----------|--------|--------|--------|----------|--------|
|--------|--------|--------|----------|--------|--------|--------|----------|--------|
|--8-8-8-|--8-8-8-|--8-8-8-|--8---8-8-|--3-3-3-|--3-3-3-|--3-3-3-|--3-3-3---|--------|
|--9-9-9-|--9-9-9-|--9-9-9-|--9-9-9-9-|--4-4-4-|--4-4-4-|--4-4-4-|--4-4-4-5-|--6-6-6-|
|--9-9-9-|--9-9-9-|--9-9-9-|--9-9-9-9-|--4-4-4-|--4-4-4-|--4-4-4-|--4-4-4-5-|--6-6-6-|
|--7-7-6-|--7-7-6-|--7-7-6-|--7-9-7-6-|--2-2-0-|--2-2-0-|--2-2-0-|--2-0-2-3-|--4-4-4-|

   n n v    n n v    n v n v    n n v    n n v
|--------|--------|----------|--------|----------|
|--------|--------|----------|--------|----------|
|--------|--------|----------|--------|----------|
|--6-6-6-|--6-6-6-|--6-6-6-6-|--2-2-2-|--5-5-5-5-|   x2
|--6-6-6-|--6-6-6-|--6-6-6-6-|--2-2-2-|--5-5-5-5-|
|--4-4-4-|--4-4-4-|--4-4-4-4-|--------|--3-3-3-3-|


mini interlude:

|-------------|-------------|-------------|--------------|
|-------------|-------------|-------------|--------------|
|-------------|-------------|-------------|--9~---11~-9~-|
|--11~-11~-9~-|--11~-11~-9~-|--11~-11~-9~-|----11~-------|
|-------------|-------------|-------------|--------------|
|-------------|-------------|-------------|--------------|


verse 3:

   .  n     .  n     .  n     .  n     .  n     .  n     .  n     .  n    
|--------|--------|--------|--------|--------|--------|--------|--------|
|--------|--------|--------|--------|--------|--------|--------|--------|
|-----13-|-----13-|-----13-|-----13-|--------|--------|--------|--------|
|-----13-|-----13-|-----13-|-----13-|-----13-|-----13-|-----13-|-----13-|
|-----11-|-----11-|-----11-|-----11-|-----13-|-----13-|-----13-|-----13-|
|--------|--------|--------|--------|-----11-|-----11-|-----11-|-----11-|

   n n n n    n n n n    n n v    n v    n n n    n n n n
|----------|----------|--------|------|--------|----------|
|----------|----------|--------|------|--------|----------|
|--6-6-6-6-|--8-8-8-8-|--------|------|--8-8-8-|--8-8-8-8-|
|--6-6-6-6-|--8-8-8-8-|--6-6-4-|--6-4-|--8-8-8-|--8-8-8-8-|
|--4-4-4-4-|--6-6-6-6-|--------|------|--6-6-6-|--6-6-6-6-|
|----------|----------|--------|------|--------|----------|



chorus:

   n n v    n n v    n n v    n v n v    n n v    n n v    n n v    n v n v    n n v  
|--------|--------|--------|----------|--------|--------|--------|----------|--------|
|--------|--------|--------|----------|--------|--------|--------|----------|--------|
|--8-8-8-|--8-8-8-|--8-8-8-|--8---8-8-|--3-3-3-|--3-3-3-|--3-3-3-|--3-3-3---|--------|
|--9-9-9-|--9-9-9-|--9-9-9-|--9-9-9-9-|--4-4-4-|--4-4-4-|--4-4-4-|--4-4-4-5-|--6-6-6-|
|--9-9-9-|--9-9-9-|--9-9-9-|--9-9-9-9-|--4-4-4-|--4-4-4-|--4-4-4-|--4-4-4-5-|--6-6-6-|
|--7-7-6-|--7-7-6-|--7-7-6-|--7-9-7-6-|--2-2-0-|--2-2-0-|--2-2-0-|--2-0-2-3-|--4-4-4-|

   n n v    n n v    n v n v    n n v    n n v
|--------|--------|----------|--------|----------|
|--------|--------|----------|--------|----------|
|--------|--------|----------|--------|----------|
|--6-6-6-|--6-6-6-|--6-6-6-6-|--2-2-2-|--5-5-5-5-|   x2
|--6-6-6-|--6-6-6-|--6-6-6-6-|--2-2-2-|--5-5-5-5-|
|--4-4-4-|--4-4-4-|--4-4-4-4-|--------|--3-3-3-3-|



and right here, right now:

|-------|-------|-------|-------|-------|-------|-------|
|-------|-------|-------|-------|-------|-------|-------|
|-------|-------|-------|-------|-------|--8----|-------|
|--6----|--6----|--4----|--3----|--2----|--8~---|--6----| x3  (third time repeat last measure)
|--6~---|--6~---|--4~---|--3~---|--2~---|--6----|--6~---|
|--4----|--3----|--2----|--1----|--0----|-------|--4----|


solo:
  
   n n v    n n v    n n v    n v n v    n  n  v    n  n  v    n  n  v    n  v  n  v
|--------|--------|--------|----------|----------|----------|----------|--------------|
|--------|--------|--------|----7-7---|----------|----------|----------|--------------|
|--8-8-6-|--8-8-6-|--8-8-6-|--8-----8-|----------|----------|----------|-----11-11-12-|
|--------|--------|--------|----------|--11-11-9-|--11-11-9-|--11-11-9-|--11----------|
|--------|--------|--------|----------|----------|----------|----------|--------------|
|--------|--------|--------|----------|----------|----------|----------|--------------|

     n  n  v     n  n  v     n  n  v     n  v  n  v      n n  v     n  v  n  v
  |-----------|-----------|-----------|--11----------|-----------|--------11----|
  |--12-12-11-|--12-12-11-|--12-12-14-|-----14-12-11-|---9-11-11-|--12-12----14-|
  |-----------|-----------|-----------|--------------|-----------|--------------|
* |-----------|-----------|-----------|--------------|-----------|--------------| * (guitar 1)
  |-----------|-----------|-----------|--------------|-----------|--------------|
  |-----------|-----------|-----------|--------------|-----------|--------------|

     n  n  v     n  n  v     n  n  v     n  v  n  v     n  n  v     n  v  n  v
  |-----------|-----------|-----------|--------------|-----------|--------------|
  |-----------|-----------|-----------|--12----------|-----------|--------14-12-|
  |--13-13-11-|--13-13-11-|--13-13-15-|-----15-13-11-|--11-13-13-|--14-14-------|
* |-----------|-----------|-----------|--------------|-----------|--------------| * (guitar 2)
  |-----------|-----------|-----------|--------------|-----------|--------------|
  |-----------|-----------|-----------|--------------|-----------|--------------|




outro:

   n n v    n n v    n n v    n v n v    n n v    n n v    n n v    n v n v    n n v  
|--------|--------|--------|----------|--------|--------|--------|----------|--------|
|--------|--------|--------|----------|--------|--------|--------|----------|--------|
|--8-8-8-|--8-8-8-|--8-8-8-|--8---8-8-|--3-3-3-|--3-3-3-|--3-3-3-|--3-3-3---|--------|
|--9-9-9-|--9-9-9-|--9-9-9-|--9-9-9-9-|--4-4-4-|--4-4-4-|--4-4-4-|--4-4-4-5-|--6-6-6-|
|--9-9-9-|--9-9-9-|--9-9-9-|--9-9-9-9-|--4-4-4-|--4-4-4-|--4-4-4-|--4-4-4-5-|--6-6-6-|
|--7-7-6-|--7-7-6-|--7-7-6-|--7-9-7-6-|--2-2-0-|--2-2-0-|--2-2-0-|--2-0-2-3-|--4-4-4-|

   n n v    n n v    n v n v    n n v    n n v
|--------|--------|----------|--------|----------|
|--------|--------|----------|--------|----------|
|--------|--------|----------|--------|----------|
|--6-6-6-|--6-6-6-|--6-6-6-6-|--2-2-2-|--5-5-5-5-|
|--6-6-6-|--6-6-6-|--6-6-6-6-|--2-2-2-|--5-5-5-5-|
|--4-4-4-|--4-4-4-|--4-4-4-4-|--------|--3-3-3-3-|

   n n n n    n n v n    n n n n    n n v n    n n n n    n n n n    n n n n    n n
|----------|----------|----------|----------|----------|----------|----------|------|
|----------|----------|----------|----------|----------|----------|----------|------|
|--8-8-8-8-|--8-8-8-8-|----------|----------|----------|----------|----------|------|
|--9-9-9-9-|--9-9-9-9-|--4-4-4-4-|--4-4-4-5-|--6-6-6-6-|--6-6-6-6-|--2-2-2-2-|--5-5-|
|--9-9-9-9-|--9-9-9-9-|--4-4-4-4-|--4-4-4-5-|--6-6-6-6-|--6-6-6-6-|--2-2-2-2-|--5-5-|
|--7-7-7-7-|--7-7-7-6-|--2-2-2-0-|--2-0-2-3-|--4-4-4-4-|--4-4-4-4-|--0-0-0-0-|--3-3-|


|----------|
|----------|
|----------|
|--9-9-9-9-|
|--9-9-9-9-|
|--7-7-7-7-|


thanks xx
Suggest correction
Give kudos to tab author, rate the tab!
1 2 3 4 5
comments
print report bad tab
1 comment total.
0 reply
TuAnh 31 wrote on December 25 2010, 04:25 pm

Great tab!
But you really have to learn tabbing 'cause it's really difficult to figure out.

guest
You may want to rate the tab now too:
select rating
Wanna post a correction for this tab? Suggest correction