Oops, an error
Loading. Please wait.

Na Na Na Tab

version 5
version 5

Interactive

  • Simplified version designed for single guitar.
41,055 views 120 this week
4 commentsread comments
1 2 3 4 5
excellent!
x 38
add to favorites
launch autoscroll
font size
0
reset
how to read this tab
guitar tuner
Autoscroll
slow
fast
+/-
esc
set tempo
stop
Help us to improve Ultimate-Guitar.com Take our survey!
×
Author
[Intro]

e|---------------------------------------------------------------------------|
B|---------------------------------------------------------------------------|
G|---------------------------4-----------------------------------------------|
D|-6---6-4-6---6-4-6---6-4-6---6-4-----------------------------4------Intro--|
A|-----------------------------------6---6-4-6---6-4-6---6-4-6---6-5--cont...|
E|---------------------------------------------------------------------------|

e|---------------------------------------------------------------------------|
B|---------------------------------------------------------------------------|
G|------------------------------------------------------8-8-8-8-8-8-8--Play--|
D|-------------------4---4---4---4-5---6---6-4-6---4----8-8-8-8-8-8-8--Intro-|
A|-4---4---4---4-----------6----------------------------6-6-6-6-6-6-6--Twice-|
E|-------7-------7-----------------------------------------------------------|


[Verse 1]

e|---------------------------------------------------------------------------|
B|---------------------------------------------------------------------------|
G|-13-13-13-13-13-13-13-13-13-13-13-13-13-13-13-13-------------PM=.----------|
D|-13-13-13-13-13-13-13-13-13-13-13-13-13-13-13-13---------------------------|
A|-11-11-11-11-11-11-11-11-11-11-11-11-11-11-11-11---------------------------|
E|- .  .     .  .  .  .  .  .  .  .  .  .  .  .  .---------------------------|

e|---------------------------------------------------------------------------|
B|---------------------------------------------------------------------------|
G|-8-8-8-8-8-8-8-8-8-8-8-8-8-8-8-8---6-6-6-6-6-6-6-6-------------------------|
D|-8-8-8-8-8-8-8-8-8-8-8-8-8-8-8-8---6-6-6-6-6-6-6-6-------------------------|
A|-6-6-6-6-6-6-6-6-6-6-6-6-6-6-6-6---4-4-4-4-4-4-4-4-------------------------|
E|-. .   . . . . . . . . . . . . .---. .   . . . . .-------------------------|

e|---------------------------------------------------------------------------|
B|---------------------------------------------------------------------------|
G|-11-11-11-11-11-11-11-11---13-13-13-13-13-13-13-13---8-8-8-8-8-8-8---------|
D|-11-11-11-11-11-11-11-11---13-13-13-13-13-13-13-13---8-8-8-8-8-8-8---------|
A|-9--9--9--9--9--9--9--9----11-11-11-11-11-11-11-11---6-6-6-6-6-6-6---------|
E|-.  .     .  .  .  .  .----.  .  .  .  .  .  .  .--------------------------|


[Verse 1b]??

e|---------------------------------------------------------------------------|
B|---------------------------------------------------------------------------|
G|-13---13-13-13---13-13-13---13-13-13-13-13-13----Trying-to-help-you-guys---|
D|-13---13-13-13---13-13-13---13-13-13-13-13-13----out-with-the-strum-pattern|
A|-11---11-11-11---11-11-11---11-11-11-11-11-11------------------------------|
E|---------------------------------------------------------------------------|

e|---------------------------------------------------------------------------|
B|---------------------------------------------------------------------------|
G|-8---8-8-8---8-8-8---8-8-8-8-8-7---6---6-6-6---6-6-------------------------|
D|-8---8-8-8---8-8-8---8-8-8-8-8-7---6---6-6-6---6-6-------------------------|
A|-6---6-6-6---6-6-6---6-6-6-6-6-5---4---4-4-4---4-4-------------------------|
E|---------------------------------------------------------------------------|

e|---------------------------------------------------------------------------|
B|---------------------------------------------------------------------------|
G|-11---11-11-11---11-11-12---13-13-13-13-13-13---11-11-11-11-11-11-11-------|
D|-11---11-11-11---11-11-12---13-13-13-13-13-13---11-11-11-11-11-11-11-------|
A|-9----9--9--9----9--9--10---11-11-11-11-11-11---9--9--9--9--9--9--9--------|
E|---------------------------------------------------------------------------|


[Chorus 1]

e|---------------------------------------------------------------------------|
B|---------------------------------------------------------------------------|
G|-----------------------------------11---11-11-11---11-11-11----------------|
D|-9---9-9-9---9-9-9---9-9-9-9-9-9---11---11-11-11---11-11-11----------------|
A|-9---9-9-9---9-9-9---9-9-9-9-9-9---9----9--9--9----9--9--9-----------------|
E|-7---7-7-7---7-7-7---7-7-7-7-7-7-------------------------------------------|

e|---------------------------------------------------------------------------|
B|---------------------------------------------------------------------------|
G|-11-11-11-11-11-11---------------------------------------------------------|
D|-11-11-11-11-11-11---6---6-6-6---6-6-6---6-6-6-6-6-6-----------------------|
A|-9--9--9--9--9--9----6---6-6-6---6-6-6---6-6-6-6-6-6-----------------------|
E|---------------------4---4-4-4---4-4-4---4-4-4-4-4-4-----------------------|

e|---------------------------------------------------------------------------|
B|---------------------------------------------------------------------------|
G|-11----11----11----11-------12----12----12----12------Play the-------------|
D|-11----11----11----11-------12----12----12----12------Chorus---------------|
A|-9-----9-----9-----9--------10----10----10----10------Twice----------------|
E|---------------------------------------------------------------------------|


That little part before the 2nd verse

e|---------------------------------------------------------------------------|
B|---------------------------------------------------------------------------|
G|-----------------------4---6-4-6-4-----------------------------------------|
D|-6---6-4-6---6-4-6---6----------------6---6-4-6---6-4-6--After the last 6--|
A|---------------------------------------------------------Slide your finger-|
E|---------------------------------------------------------up the neck some--|


[Verse 2]

e|---------------------------------------------------------------------------|
B|---------------------------------------------------------------------------|
G|-13-13r---13r-----13-13r---13r-----8-8r---8r-----8-8r---8--7---------------|
D|-13-13r---13r-----13-13r---13r-----8-8r---8r-----8-8r---8--7---------------|
A|-11-11r---11r-----11-11r---11r-----6-6r---6r-----6-6r---6--5---------------|
E|---------------------------------------------------------------------------|

e|---------------------------------------------------------------------------|
B|---------------------------------------------------------------------------|
G|-6r----6r----6r----6r----11r----11r----11r----11-12------------------------|
D|-6r----6r----6r----6r----11r----11r----11r----11-12------------------------|
A|-4r----4r----4r----4r----9r-----9r-----9r-----9--10------------------------|
E|---------------------------------------------------------------------------|

e|---------------------------------------------------------------------------|
B|---------------------------------------------------------------------------|
G|-13-13-13-13-13-13-13-13-----11-11-11-11-11-11-11-11--Okay so dont forget--|
D|-13-13-13-13-13-13-13-13-----11-11-11-11-11-11-11-11--to rest after the----|
A|-11-11-11-11-11-11-11-11-----9--9--9--9--9--9--9--9---notes I put r by-----|
E|------------------------------------------------------in Verse 2-----------|


Now play the Chorus twice


[Bridge]

e|---------------------------------------------------------------------------|
B|---------------------------------------------------------------------------|
G|---------------------------------------------------------------------------|
D|---------------------------------------------6-------5---6~~~~~~-----------|
A|-11~~~~~-10~~~~~-9~~~~~-8~~~~~---4--6----7-------6-----------------6h7h9---|
E|---------------------------------------------------------------------------|

This part and the one above are played during the talking part try to listen for it and 
when you play the notes as best you can.

e|---------------------------------------------------------------------------|
B|---------------------------------------------------------------------------|
G|---------------------------------------------------------------------------|
D|--------------------------------------------6-------5---6~~~~~~------------|
A|-11~~~~~10~~~~~9~~~~~-11-9-8----4--6----7-------6--------------------------|
E|---------------------------------------------------------------------------|

e|---------------------------------------------------------------------------|
B|---------------------------------------------------------------------------|
G|---------------------------------------------------------------------------|
D|------------------------------------------------------6~~~~~~~~~~~~~-------|
A|-11~~~~~10~~~~~9~~~~~-11-9-8----4--6----7~~~~~~9~~~~~~---------------------|
E|---------------------------------------------------------------------------|

This one and the one above start when he sings the part "Everybody wants to change the world.
Everybody wants to change the world.
But no one, no one wants to die" Both of the last notes are played on the word die.

e|-16-11p7-16-11p7-16-11p7-16-11p7-15-10p6-15-10p6-15-10p6-15-10p6-cont......|
B|-T-------T-------T-------T-------T-------T-------T-------T-----------------|
G|---------------------------------------------------------------------------|
D|---------------------------------------------------------------------------|
A|---------------------------------------------------------------------------|
E|---------------------------------------------------------------------------|

e|-14-10p6-14-10p6-14-10p6-14-10p6-13-9p5-13-9p5-13-9p5-13-9p5 cont..........|
B|--T------T--------T-------T-------T-----T------T------T--------------------|
G|---------------------------------------------------------------------------|
D|---------------------------------------------------------------------------|
A|---------------------------------------------------------------------------|
E|---------------------------------------------------------------------------|

e|-12-7p4-12-7p4-12-7p4-12-7p4-14-9p6-14-9p6-14-9p6-14-9p6-16~~~~~~~~--------|
B|-T------T------T------T------T------T------T------T------T-----------------|
G|---------------------------------------------------------------------------|
D|---------------------------------------------------------------------------|
A|---------------------------------------------------------------------------|
E|---------------------------------------------------------------------------|


[Solo]

e|---------------------------------------------------------------------------|
B|---------------------------------------------------------------------------|
G|-8---8----8---8\---8---8----8-11-11-8--------------------------------------|
D|-------11----------------11-------------11---9-11-9---11\------------------|
A|---------------------------------------------------------------------------|
E|---------------------------------------------------------------------------|

e|---------------------------------------------------------------------------|
B|---------------------------------------------------------------------------|
G|--------------11-11-12---13---13-11-13---13\---13---13-15-16-15-13---------|
D|-11---11-9-11--------------------------------------------------------------|
A|---------------------------------------------------------------------------|
E|---------------------------------------------------------------------------|

e|---------------------------------------------------------------------------|
B|-9-------11--11----12--12------16------14----------------------------------|
G|-11^-----13^-13^---14^-14^-----18^-----16^---------------------------------|
D|---------------------------------------------------------------------------|
A|----------------------------------------------^=full bend------------------|
E|---------------------------------------------------------------------------|

Na Na Nas here


[Final Chorus/Outro]

e|---------------------------------------------------------------------------|
B|---------------------------------------------------------------------------|
G|------------------------------------11---11-11-11---11-11-11---------------|
D|-9---9-9-9---9-9-9---9-9-9-9-9-9----11---11-11-11---11-11-11---------------|
A|-9---9-9-9---9-9-9---9-9-9-9-9-9----9----9--9--9----9--9--9----------------|
E|-7---7-7-7---7-7-7---7-7-7-7-7-7-------------------------------------------|

e|---------------------------------------------------------------------------|
B|---------------------------------------------------------------------------|
G|-11-11-11-11-11-11---------------------------------------------------------|
D|-11-11-11-11-11-11----6---6-6-6---6-6-6---6-6-6-6-6-6----------------------|
A|-9--9--9--9--9--9-----6---6-6-6---6-6-6---6-6-6-6-6-6----------------------|
E|----------------------4---4-4-4---4-4-4---4-4-4-4-4-4----------------------|

e|---------------------------------------------------------------------------|
B|---------------------------------------------------------------------------|
G|-9----9----9----9----12----12----12----12----------------------------------|
D|-9----9----9----9----12----12----12----12----------------------------------|
A|-7----7----7----7----10----10----10----10----------------------------------|
E|---------------------------------------------------------------------------|

e|---------------------------------------------------------------------------|
B|---------------------------------------------------------------------------|
G|---------------------------------------------------------------------------|
D|-9r----9r----9r----9r----9r----9r----9r----9r------------------------------|
A|-9r----9r----9r----9r----9r----9r----9r----9r------------------------------|
E|-7r----7r----7r----7r----7r----7r----7r----7r------------------------------|

e|---------------------------------------------------------------------------|
B|---------------------------------------------------------------------------|
G|-11r----11r----11r----11r----11r----11r----11r----11r----------------------|
D|-11r----11r----11r----11r----11r----11r----11r----11r----------------------|
A|-9r-----9r-----9r-----9r-----9r-----9r-----9r-----9r-----------------------|
E|---------------------------------------------------------------------------|

e|---------------------------------------------------------------------------|
B|---------------------------------------------------------------------------|
G|---------------------------------------------------------------------------|
D|-6r----6r----6r----6r----6r----6r----6r----6r--and remember r means rest---|
A|-6r----6r----6r----6r----6r----6r----6r----6r------------------------------|
E|-4r----4r----4r----4r----4r----4r----4r----4r------------------------------|

e|---------------------------------------------------------------------------|
B|---------------------------------------------------------------------------|
G|-9~~~~~~~~~~~12~~~~~~~~~~~9~~~~~~~~~~~~12~~~~~~~~~~~-----------------------|
D|-9~~~~~~~~~~~12~~~~~~~~~~~9~~~~~~~~~~~~12~~~~~~~~~~~-----------------------|
A|-7~~~~~~~~~~~10~~~~~~~~~~~7~~~~~~~~~~~~10~~~~~~~~~~~-----------------------|
E|---------------------------------------------------------------------------|

e|---------------------------------------------------------------------------|
B|---------------------------------------------------------------------------|
G|-9~~~~~~~~~~~~-12~~~~~~~~~~~~4~~~~~~~~~~~~~~~~~~~~~~~~~~-------------------|
D|-9~~~~~~~~~~~~-12~~~~~~~~~~~~4~~~~~~~~~~~~~~~~~~~~~~~~~~-------------------|
A|-7~~~~~~~~~~~~-10~~~~~~~~~~~~2~~~~~~~~~~~~~~~~~~~~~~~~~~-------------------|
E|---------------------------------------------------------------------------|



************************************

| h  Hammer-on
| p  Pull-off
| r  Release
| \  Slide down
| ~  Vibrato

************************************
Suggest correction
comments
print report bad tab
4 comments total. Showing first comments.
0 reply
I got the boot 56 wrote on September 2 2011, 02:02 pm

Great job it seems to be 100% accurate.

0 reply
xMCR.for.Lifex 192 wrote on March 7 2015, 03:58 pm

what does the T mean in the bridge?

0 reply
Kerosane 10 wrote on May 2 2015, 10:27 pm

T means tap

guest
You may want to rate the tab now too:
select rating
Please do not post tabs as comments. Select "correction" instead!