Oops, an error
Loading. Please wait.

Na Na Na Tab

version 6
version 6

Interactive

4,235 views 6 this week
no commentswrite comment
1 2 3 4 5
please rate
add to favorites
launch autoscroll
font size
0
reset
how to read this tab
guitar tuner
Autoscroll
slow
fast
+/-
esc
set tempo
stop
Help us to improve Ultimate-Guitar.com Take our survey!
×
Author
Difficulty
Tuning
intermediate
D A D G B E
-------------------------------------------------------------------------------
                             Na Na Na - My Chemical Romance 
-------------------------------------------------------------------------------
Tabbed by: steveoteveo
Email: steveoteveo@hotmail.com

Tuning: Drop D

Intro (0:00-0:23) (x2)
e|---------------------------------------------------------------------------|
B|---------------------------------------------------------------------------|
G|---------------------------------------------------------------------------|
D|---------------------------------------------------------------------------|
A|------------------------------------------14-------------------------------|
D|--18--18--16--18--18--16--18--18--16--18------18--16-----------------------|

e|---------------------------------------------------------------------------|
B|---------------------------------------------------------------------------|
G|---------------------------------------------------------------------------|
D|---------------------------------------------------------------------------|
A|------------------------------------------9--------------------------------|
D|--13--13--10--13--13--10--13--13--10--13------13--10-----------------------|

e|---------------------------------------------------------------------------|
B|---------------------------------------------------------------------------|
G|---------------------------------------------------------------------------|
D|------------------------------------------------------13--use song to------|
A|------------------------------------------------------13--figure out-------|
D|--11--11--9--11--11--9--16--16--13--16--16--17--18----13--rhythm-----------|

  1st Verse (0:23-0:45)
e|---------------------------------------------------------------------------|
B|---------------------------------------------------------------------------|
G|---------------------------------------------------------------------------|
D|--13-13-13---13--(x12)--8-8-8---8-(x12)---6-6-6---6-(x4)--11-11-11---11(x4)|
A|--11-11-11---11---------6-6-6---6---------4-4-4---4--------9--9--9----9----|
D|---------------------------------------------------------------------------|
     .  .                 . .               . .              .  . 
e|---------------------------------------------------------------------------|
B|---------------------------------------------------------------------------|
G|----------------------13(x16)----8(x15)-7---6(x8)--11(x8)--13(x8)--11(x8)--|
D|--13-(x8)--11-(x6)-----x---------x------x---x-------x-------x-------x------|
A|--11--------9---------11---------6------5---4-------9------11-------9------|
D|---------------------------------------------------------------------------|
Chorus - (0:45-1:09) Rhythm is simple, I’ll just show the chords
e|---------------------------------------------------------------------------|
B|---------------------------------------------------------------------------|
G|-------11------------------------------------------------------------------|
D|--9----11----6----9----12---all of this------------------------------------|
A|--9----9-----6----9----10---repeat (x2)------------------------------------|
D|--9----------6----7----10--------------------------------------------------|
Post Chorus - (1:09-1:13)
e|---------------------------------------------------------------------------|
B|---------------------------------------------------------------------------|
G|---------------------------------------------------------------------------|
D|---------------------------------------------------------------------------|
A|----------14----------14----------14--16--14--16--14----------14-----------|
D|--18--18------18--18------18--18----------------------18--18---------------|




e|---------------------------------------------------------------------------|
B|---------------------------------------------------------------------------|
G|---------------------------------------------------------------------------|
D|---------------------------------------------------------------------------|
A|----------14---------------------------------------------------------------|
D|--18--18------18-----------------------------------------------------------|

***Verse 2 uses the same chords, just a different rhythm

Interlude - (1:50-2:01)
e|---------------------------------------------------------------------------|
B|---------------------------------------------------------------------------|
G|---------------------------------------------------------------------------|
D|-------------------------6---5--6------------------------------------------|
A|--11--10--9--8--3--5--7----5-----------------------------------------------|
D|---------------------------------------------------------------------------|
Interlude - (2:01-2:11) 
e|---------------------------------------------------------------------------|
B|--------11----/-16--16h17p16p14--16----------------------------------------|
G|--/-13--13-^-------------------------16--18--20--15b16br15--13-------------|
D|---------------------------------------------------------------------------|
A|---------------------------------------------------------------------------|
D|---------------------------------------------------------------------------|
Pre-Solo - (2:11-2:21) **this is all tapping and each phrase is repeated 4 times
e|--16-11-7-(x4)---15-11-8-(x4)--14-11-8-(x4)--13-9-5-(x4)--12-7-4-(x4)------|
B|---------------------------------------------------------------------------|
G|---------------------------------------------------------------------------|
D|---------------------------------------------------------------------------|
A|---------------------------------------------------------------------------|
D|---------------------------------------------------------------------------|

e|--14-9-6 (x4)--16 hold-----------------------------------------------------|
B|---------------------------------------------------------------------------|
G|---------------------------------------------------------------------------|
D|---------------------------------------------------------------------------|
A|---------------------------------------------------------------------------|
D|---------------------------------------------------------------------------|
Solo - (2:27 - 2:38) **Dual guitar happens at on spot in this solo 
e|---------------------------------------------------------------------------|
B|---------------------------------------------------------------------------|
G|--/8--8-----8--8-----8--8------8--11--11--8--------------------------------|
D|---------11-------11-------11----------------11--11--9--11--11-9--11--11--9|
A|---------------------------------------------------------------------------|
D|---------------------------------------------------------------------------|
Guitar 1
e|---------------------------------------------------------------------------|
B|-------------------*-------------------------------------------------------|
G|------11--11--12----13--13--11--13--13----13--13--15--15b16br15--13--11----|
D|--11-----------------------------------------------------------------------|
A|---------------------------------------------------------------------------|
D|---------------------------------------------------------------------------|







Guitar 2
e|-*-------------------------------------------------------------------------|
B|--12--12--11--12--12----12--12--14--14b16br14--12--11----------------------|
G|---------------------------------------------------------------------------|
D|---------------------------------------------------------------------------|
A|---------------------------------------------------------------------------|
D|---------------------------------------------------------------------------|
Guitar 1
e|---------------------------------------------------------------------------|
B|---9----11---12----16----14------------------------------------------------|
G|--11^---13^--14^---18^---16^-----------------------------------------------|
D|---------------------------------------------------------------------------|
A|---------------------------------------------------------------------------|
D|---------------------------------------------------------------------------|



************************************
| .   palm mute
| /   slide up
| \   slide down
| h   hammer-on
| p   pull-off
| ~   vibrato
| +   harmonic
| x   Mute note
| b   Bend
| pb  Pre-bend
| br  Bend release
| pbr Pre-bend release
| brb Bend release bend

************************************
Suggest correction new What's this?
You can suggest a correction to this tab. Community and Mods will review your correction and vote to approve or reject it.
comments
We did not receive enough feedback on this tab! Please rate:
print report bad tab
1 2 3 4 5
guest
You may want to rate the tab now too:
select rating
Please do not post tabs as comments. Select "correction" instead!