Oops, an error
Loading. Please wait.

Na Na Na Tab

version 7
version 7

Intro

Interactive

1,857 views 3 this week
no commentswrite comment
1 2 3 4 5
please rate
add to favorites
launch autoscroll
font size
0
reset
how to read this tab
guitar tuner
Tab Pro tools
  • play this tab
  • loop segment
  • change instrument
  • show fretboard
  • metronome
Autoscroll
slow
fast
+/-
esc
set tempo
stop
Contributor
Difficulty
intermediate
Intro:
e|-----------------|-----------------|-----------------|-----------------|
B|-----------------|-----------------|-----------------|-----------------|
G|-----------------|-----------4-----|-----------------|-----------------|
D|-6---6-4-6---6-4-|-6---6-4-6---6-4-|-----------------|-----------4-----|
A|-----------------|-----------------|-6---6-4-6---6-4-|-6---6-4-6---6-5-|
E|-----------------|-----------------|-----------------|-----------------| 
                                                                            X2
e|-----------------|-----------------|-----------------|-----------------|
B|-----------------|-----------------|-----------------|-----------------|
G|-----------------|-----------------|-----------------|-----------------|
D|-----------------|-4---4---4---4-5-|-6---6-4-6---4---|---8-8-8-8-8-8-8-|
A|-4---4---4---4---|-------6---------|-----------------|---6-6-6-6-6-6-6-|
E|-------7-------7-|-----------------|-----------------|-----------------|

Verse:
e|----------------------------------------------------|
B|----------------------------------------------------|
G|-88-8\--8888888888888-------------------------------|
D|-66-6\--6666666666666-------88-8\--8888888888888----|
A|----------------------------66-6\--6666666666666----|
E|----------------------------------------------------|
   ..     .............       ..     .............

e|----------------------------------------------------|     |-----------|
B|----------------------------------------------------|     |-----------|
G|-------------------66-6\--66666-----88-8\--8888-----|     |-----------|
D|-66-6\--66666------44-4\--44444-----66-6\--6666-----|     |--8888888--|
A|-44-4\--44444---------------------------------------|     |--6666666--|
E|----------------------------------------------------|     |-----------|
   ..     .....      ..     .....     ..     ....

e|------------------------------------------------------|    |-----------|
B|------------------------------------------------------|    |-----------|
G|-8-------------------------------6---------8----------|    |--6666666--|
D|-6-(x 16)----8---------6---------4-(x 8)---6-(x 8)----|    |--4444444--|
A|-------------6-(x 16)--4-(x 8)------------------------|    |-----------|
E|------------------------------------------------------|    |-----------|

Chorus:
e|-------------------------------------------------------------|
B|-------------------------------------------------------------|
G|-----------11---------------------9--------9/11---11---------|
D|-9---------11----------6----------9--------9/11---11---------|    x 2
A|-9----------9-(x 16)---6----------7-(x 8)--7/-9----9-(x 6)---|
E|-7-(x 16)--------------4-(x 16)------------------------------|

e|--------------------------------------------------|
B|--------------------------------------------------|
G|----------------------6-4-6-4---------------------|
D|-6--6-4-6--6-4-6--6-4----------6--6-4-6--6-4-6\---|
A|--------------------------------------------------|
E|--------------------------------------------------|

"...More! Gimme More! Gimme More!"
e|----------------------------------------------------|
B|----------------------------------------------------|
G|-----------------------------8-11-8-11-8---13-------|
D|-------------------------------------------13-(x9)--|
A|--11--11-9--11--11-9--11--11---------------11-------|
E|----------------------------------------------------|




Verse 2
e|----------------------------------------------------------------|
B|----------------------------------------------------------------|
G|-88-8----------------------------6-6-6-6--88888888--6666666-----|
D|-66-6-(x 4)--88-8--------6-6-6-6-4-4-4-4--66666666--4444444-----|
A|-------------66-6-(x 4)--4-4-4-4--------------------------------|
E|----------------------------------------------------------------|
   ..          ..

Repeat Chorus

Breakdown (play with it)
e|-----------------------------|
B|-----------------------------|
G|-----------------------------|
D|-6--5--4--3------2--4--6-----|
A|-------------4-6-------------|
E|-----------------------------|
 Bride/ pre-solo: ?
Solo:
e|------------------------------------------------------------------------------------|
B|------------------------------------------------------------------------------------|
G|-8--8------8--8------8--8------8-11-11-8--------------------------------11-11/12----|
D|------11--------11--------11--------------11--11-9-11--11-9-11--11-9-11-------------|
A|------------------------------------------------------------------------------------|
E|------------------------------------------------------------------------------------|

e|----------------------------------------------------------|
B|-12--12-11-12-12--12-12/14\12---9--- 11-11--12---16--14---|
G|-13--13-11-13-13--13-13/15\13--11b--13b13b-14b--18b\16b---|
D|----------------------------------------------------------|
A|----------------------------------------------------------|
E|----------------------------------------------------------|

Repeat Chorus

End on:
e|-----|
B|-----|
G|--4--|
D|--4--|
A|--2--|
E|-----|


comments
We did not receive enough feedback on this tab! Please rate:
print report bad tab
1 2 3 4 5
I want to post or [tab]
guest
You may want to rate the tab now too:
select rating
Please do not post tabs as comments. Select "correction" instead!