Oops, an error
Loading. Please wait.

Our Lady Of Sorrows Bass Tab

version 1
version 1

Whole song

Interactive

7,172 views 9 this week
5 commentsread comments
1 2 3 4 5
x 20
add to favorites
launch autoscroll
font size
0
reset
guitar tuner
Autoscroll
slow
fast
+/-
esc
set tempo
stop
Help us to improve Ultimate-Guitar.com Take our survey!
×
Author
Difficulty
OUR LADY OF SORROWS
MY CHEMICAL ROMANCE
BASS TAB
STANDARD TUNING


Intro
G|--------------------------------------------------------------------|
D|--------------------------------------------------------------------|
A|--4--43-----0--03-----4>------3>-------0>---------33333333----------|
E|--------------------------------------------------------------------|
Verse
G|--------------------------------------------------------|x4
D|--------------------------------------------------------|
A|---4444444-33333333-00000000-33333333-------------------|
E|--------------------------------------------------------|
Chorus
G|------------------|
D|------------------|
A|---4--------------| x3
E|------4--5--2-----|
except,

G|--------------------|
D|--------------------|
A|---4----------------| (4th Time during chorus)
E|--------4--5--33----|
Verse(1x)

Chorus(1x),except

G|----------------------|
D|----------------------|
A|---4------------------| (4th Time during chorus)
E|--------4-------------|
Bridge
G|-------------------------------------------------------------------|x2
D|-------------------------------------------------------------------|
A|---44444444-000000000-77777777-22223333----------------------------|
E--------------------------------------------------------------------|

G|-----------------------------------------------------------------------|
D|-----------------------------------------------------------------------|
A|-0-0-0--00---2-2-2--22---4-4-4--44--4-767------------------------------|
E|-----------------------------------------------------------------------|

G|-----------------------------------------------------------------------|
D|-----------------------------------------------------------------------|
A|--0-0-0--00---2-2-2--22---1-1-1--11---3-3-3----------------------------|
E|-----------------------------------------------------------------------|
Chorus (7x)
next play Last Time Play
G|------------------------|
D|------------------------|
A|---4-------------4444---|
E|------4--5--2-----------|


enjoy!
Suggest correction
comments
print report bad tab
5 comments total. Showing first comments.
0 reply
shotgunxsinner 10 Jan 05, 2007 11:42 PM

exactly right.awesome job.

0 reply
shotgunxsinner 10 Feb 12, 2007 02:50 PM

I memorized it. =]
thanks =D

0 reply
byob_soad2 41 Jun 18, 2007 05:32 PM

Very easy. Very good! 5* Rating now if I haven't already, I forget if I did.

guest
You may want to rate the tab now too:
select rating
Wanna post a correction for this tab? Suggest correction