Oops, an error
Loading. Please wait.

Our Lady Of Sorrows Bass Tab

version 2
version 2

Whole song

Interactive

859 views 1 this week
no commentswrite comment
1 2 3 4 5
2 more votes to show rating
add to favorites
launch autoscroll
font size
0
reset
guitar tuner
Autoscroll
slow
fast
+/-
esc
set tempo
stop
Help us to improve Ultimate-Guitar.com Take our survey!
×
Author
BAND: My Chemical Romance
Song: Our Lady of Sorrows
Album: I Brought you my Bullets, You Brought me your Love
Bassist: Mikey Way

this is the first song ive tabbed but its not that hard. if ive made a mistake please 
know and rate :)

Intro (0:00-0:13)
G|-------------------------------------------------------|
D|-------------------------------------------------------|
A|-4--43-----0--03-----4------3-------0---------33333333-|
E|-------------------------------------------------------|

"..We could be perfect .."
Verse one (0:13-0:39)
G|----------------------------------------|
D|----------------------------------------|
A|-44444444-333333333-000000000-333333333-|
E|----------------------------------------|

G|----------------------------------------|
D|----------------------------------------|
A|-44444444-333333333-000000000-333333333-|
E|----------------------------------------|

G|----------------------------------------|
D|----------------------------------------|
A|-44444444-333333333-000000000-333333333-|
E|----------------------------------------|

G|----------------------------------------|
D|----------------------------------------|
A|-44444444-333333333-000000000-33333-----|
E|----------------------------------------|

"..stand!"
Chorus one (0:39-0:47)
G|------------------------|
D|------------------------|
A|-4-----------4----------|
E|----4--5--2-----4--5--2-|

G|-------------------------|
D|-------------------------|
A|-4-----------4-----------|
E|----4--5--2-----4--5--xx-|

"We've only got one chance to put this at an end"
Verse Two (0:39-1:13)
G|----------------------------------------|
D|----------------------------------------|
A|-44444444-333333333-000000000-333333333-|
E|----------------------------------------|

G|----------------------------------------|
D|----------------------------------------|
A|-44444444-333333333-000000000-333333333-|
E|----------------------------------------|

G|----------------------------------------|
D|----------------------------------------|
A|-44444444-333333333-000000000-333333333-|
E|----------------------------------------|

G|----------------------------------------|
D|----------------------------------------|
A|-44444444-333333333-000000000-33333-----|
E|----------------------------------------|

"stand!"
Chorus (1:13-1:20)
G|------------------------|
D|------------------------|
A|-4-----------4----------|
E|----4--5--2-----4--5--2-|

G|--------------------|
D|--------------------|
A|---4-----------4----|
E|------4--5--2-----4-|

"trust, you said.."
Bridge (1:21-1:48)
G|--------------------------------------|
D|--------------------------------------|
A|-44444444-000000000-77777777-22223333-|
E---------------------------------------|

G|--------------------------------------|
D|--------------------------------------|
A|-44444444-000000000-77777777-22223333-|
E|--------------------------------------|

G|------------------------------------------|
D|------------------------------------------|
A|-0-0-0--00---2-2-2--22---4-4-4--44--4-767-|
E|------------------------------------------|

G|-------------------------------------------|
D|-------------------------------------------|
A|-0-0-0--00---2-2-2--22---1-1-1--11---3-3-3-|
E|-------------------------------------------|

"stand!"
Ending Chorus (1:48-2:02)
G|------------------------|
D|------------------------|
A|-4-----------4----------|
E|----4--5--2-----4--5--x-|

G|---------------------------|
D|---------------------------|
A|-4-----------4-------------|
E|----4--5--2-----4--5--2----|

G|------------------------|
D|------------------------|
A|-4-----------4----------|
E|----4--5--2-----4--5--2-|

G|-------------------------------|
D|-------------------------------|
A|---4-----------4-----------444-|
E|------4--5--2-----4--5--2------|

x = dead note

Short order of song:

Intro
Verse one
Chorus one
Verse two
Chorus two
Bridge
Ending chorus
Suggest correction
Give kudos to tab author, rate the tab!
1 2 3 4 5
comments
print report bad tab
guest
You may want to rate the tab now too:
select rating
Wanna post a correction for this tab? Suggest correction