Oops, an error
Loading. Please wait.

Our Lady Of Sorrows Tab

version 2
version 2

Whole song

Interactive

2,724 views 9 this week
6 commentsread comments
1 2 3 4 5
accurate
x 10
add to favorites
launch autoscroll
font size
0
reset
how to read this tab
guitar tuner
Tab Pro tools
  • play this tab
  • loop segment
  • change instrument
  • show fretboard
  • metronome
×
Best way to learn
"Our Lady Of Sorrows"
Autoscroll
slow
fast
+/-
esc
set tempo
stop
Contributor
Difficulty
novice
Song: Our Lady Of Sorrows
Band: My Chemical Romance
Album: I Brought You My Bullets, You Brought Me Your Love


Gtr I: Ray Toro: Standard Tuning (e,B,G,D,A,E)
Gtr II: Frank Iero: Standard Tuning (e,B,G,D,A,E)

Intro (repeat whole thing x2)

Gtr I

(open PM at regular intervals)

e:|---------------------------------------------------------------------|
B:|---------------------------------------------------------------------|
G:|---------------------------------------------------------------------|
D:|-6666666666666666-7777777777777777-----------------------------------|
A:|-4444444444444444-3333333333333333-7777777777777777-7777777777777777-|
E:|-----------------------------------5555555555555555-8888888888888888-|
PM  **************** **************** **************** ****************

Gtr II 

e:|-------------------|
B:|-------------------|
G:|-6---6-5---2---2-5-|
D:|-6---6-5---2---2-5-|
A:|-4---4-3---0---0-3-|
E:|-------------------|

Verses

Gtr I

e:|---------------------------------------------------------------------|
B:|---------------------------------------------------------------------|
G:|---------------------------------------------------------------------|
D:|-6666666666666666-7777777777777777-----------------------------------|
A:|-4444444444444444-3333333333333333-7777777777777777-7777777777777777-|
E:|-----------------------------------5555555555555555-8888888888888888-|

Gtr II

e:|---------------------------------------------------------------------|
B:|---------------------------------------------------------------------|
G:|-6666666666666666-5555555555555555-2222222222222222-5555555555555555-|
D:|-6666666666666666-5555555555555555-2222222222222222-5555555555555555-|
A:|-4444444444444444-3333333333333333-0000000000000000-3333333333333333-|
E:|---------------------------------------------------------------------|

When the above has been played twice, Gtr I changes to this:

e:|---------------------------------------------------------------|
B:|---------------------------------------------------------------|
G:|-----------------------------------99-88-99-1111-99-88-99-1111-| (x2)
D:|-6666666666666666-7777777777777777-xx-xx-xx-x-x--xx-xx-xx-x-x--|
A:|-4444444444444444-3333333333333333-77-66-77-9-9--77-66-77-9-9--|
E:|---------------------------------------------------------------|

Chorus

Both Gtr's

e:|---------------------------------|
B:|---------------------------------|
G:|---------------------------------
D:|-6-6-------------6-6---------5-5-|
A:|-4-4-6-6-7-7-4-4-4-4-6-6-7-7-3-3-|
E:|-----4-4-5-5-2-2-----4-4-5-5-----|

Repeat Verse

Repeat Chorus

Before Solo

Gtr I

e:|-----------------|
B:|-----------------|
G:|-----------------|
D:|---6---6---6---6-|
A:|-4---4---4---4---|
E:|-----------------|
PM  * * * * * * * *

Solo 

Gtr I (repeat before the line 3 times)

e:|---------|-------------|
B:|---------|-------------|
G:|-9-8-9-9-|-9-8-9-9-8/6-|
D:|---------|-------------| (x2)
A:|---------|-------------|
E:|---------|-------------|

e:|-----------|
B:|-9-8-9-999-|
G:|-9-9-9-999-| (x3)
D:|-----------|
A:|-----------|
E:|-----------|

e:|--------------10----------------|
B:|------9h11h12----12p11p9--------|
G:|-9h11--------------------11p9p8-|
D:|--------------------------------|
A:|--------------------------------|
E:|--------------------------------|

e:|-----------|
B:|-9-8-9-999-|
G:|-9-9-9-999-| (x3)
D:|-----------|
A:|-----------|
E:|-----------|

Gtr II

e:|-----------------------------------------------------------------|
B:|-----------------------------------------------------------------|
G:|-6-6-6-6-6-6-6-6---------------------------------4-4-4-4-5-5-5-5-|
D:|-6-6-6-6-6-6-6-6-7-7-7-7-7-7-7-7-2-2-2-2-2-2-2-2-4-4-4-4-5-5-5-5-| (x2)
A:|-4-4-4-4-4-4-4-4-7-7-7-7-7-7-7-7-2-2-2-2-2-2-2-2-2-2-2-2-3-3-3-3-|
E:|-----------------5-5-5-5-5-5-5-5-0-0-0-0-0-0-0-0-----------------|

e:|-----------------------------------------------------------------|
B:|-----------------------------------------------------------------|
G:|---------------------------------6-6-6-6-6-6-6-6-6-6-6-6-6-6-6-6-|
D:|-7-7-7-7-7-7-7-7-9-9-9-9-9-9-9-9-6-6-6-6-6-6-6-6-6-6-6-6-6-6-6-6-|
A:|-7-7-7-7-7-7-7-7-9-9-9-9-9-9-9-9-4-4-4-4-4-4-4-4-4-4-4-4-4-4-4-4-|
E:|-5-5-5-5-5-5-5-5-7-7-7-7-7-7-7-7---------------------------------|

e:|----------------------------------------------------------------|
B:|----------------------------------------------------------------|
G:|---------------------------------9-9-9-9-9-9-9-9-12—-12--12—-12-|
D:|-7-7-7-7-7-7-7-7-9-9-9-9-9-9-9-9-9-9-9-9-9-9-9-9-x---x---x---x--|
A:|-7-7-7-7-7-7-7-7-9-9-9-9-9-9-9-9-7-7-7-7-7-7-7-7-10--10--10--10-|
E:|-5-5-5-5-5-5-5-5-7-7-7-7-7-7-7-7--------------------------------|

Repeat Chorus

End with

Both Gtr's

e:|---------------------|
B:|---------------------|
G:|-6-------6-----5-666-|
D:|-6-6-7-4-6-6-7-5-666-|
A:|-4-6-7-4-4-6-7-3-444-|
E:|---4-5-2---4-5-------|




comments
print report bad tab
6 comments total. Showing first comments. show 1 bad comment
0 reply
shadypinoy28 wrote on March 30 2006, 04:06 pm

i love this song dude. nice tab

0 reply
The Spoon wrote on March 30 2006, 08:17 pm

good tab... 5 stars

I want to post or [tab]
guest
You may want to rate the tab now too:
select rating
Please do not post tabs as comments. Select "correction" instead!