Oops, an error
Loading. Please wait.

Our Lady Of Sorrows Bass Tab

version 3
version 3

Whole song

Interactive

578 views 1 this week
no commentswrite comment
1 2 3 4 5
3 more votes to show rating
add to favorites
launch autoscroll
font size
0
reset
guitar tuner
Autoscroll
slow
fast
+/-
esc
set tempo
stop
Help us to improve Ultimate-Guitar.com Take our survey!
×
Author
Difficulty
advanced
My Chemical Romance
Our Lady Of Sorrow
Bass Tab
Standard: EADG
Tabbed by xMCRxRULESx

/ = slide up
\ = slide down
* = let ring
~ = vibrato
h = hammer-on
p = pull-off
+ = harmonic
. = palm mute

Intro
|--------------------------------------------------------------|
|--------------------------------------------------------------|
|-4---43----0---03----4~------3~------0~------3333333333333333-|
|--------------------------------------------------------------|

Verse
|-------------------------------------|
|-------------------------------------|
|-44444444-33333333-00000000-33333333-| x4
|-------------------------------------|

Chorus
|-----------------|
|-----------------|
|-4-4-------------| x4
|-----4-4-5-5-2-2-|

Verse
|-------------------------------------|
|-------------------------------------|
|-44444444-33333333-00000000-33333333-| x4
|-------------------------------------|

Chorus
|-----------------|---|-------|
|-----------------|---|-------|
|-4-4-------------|x3-|-4-4---|
|-----4-4-5-5-2-2-|---|-----4-|

Bridge
|---------------------------------------------|
|---------------------------------------------|
|-4-4-4---4-0-0-0---0-7-7-7---7-2-2--2-3-3--3-| x2
|---------------------------------------------|

|-----------------------------------------------|
|-----------------------------------------------|
|-0-0-0---0-2-2-2---2-4-4-4---4-777-666-555-444-|
|-----------------------------------------------|

|-------------------------------------|
|-------------------------------------|
|-0-0-0---0-2-2-2---2-----------------|
|---------------------2-2-2---2-4-4-4-|

Chorus
|-----------------|
|-----------------|
|-4-4-------------| x6
|-----4-4-5-5-2-2-|

Outro
|-----------------------------|
|-----------------------------|
|-4--4--4--4--4--4--4--4--444-|
|-----------------------------|

Hope u guys enjoyed it. i spent a lot of time finding the bass for this, escpecially the 
the rest of it was easy tho.i havnt submitted that much tabs but imma start catchin up. 
expect more from me. peace out.
Suggest correction
Give kudos to tab author, rate the tab!
1 2 3 4 5
comments
print report bad tab
guest
You may want to rate the tab now too:
select rating
Wanna post a correction for this tab? Suggest correction