Oops, an error
Loading. Please wait.

Party Poison Bass Tab

version 1
version 1

Whole song

Interactive

6,716 views 12 this week
1 commentread comment
1 2 3 4 5
x 6
add to favorites
launch autoscroll
font size
0
reset
guitar tuner
Autoscroll
slow
fast
+/-
esc
set tempo
stop
Help us to improve Ultimate-Guitar.com Take our survey!
×
Author
Difficulty
novice
This is my best shot at this song. Im 99% sure this is correct,when I played it to the 
song it sounded good. If you have any questions or corrections comment and ill respond as 
soon as i can.
Enjoy!

standard tuning (i didnt bother with the tuning too much)

Intro:
bass comes in after the lady speaking japenese is done speaking

g----------------------------------|
d----------------------------------|
a--10-10--101010------------888-88-|
e---------------8-8--888-66--------|x2
you can listen to song for the timeing...its not that hard to figure out

Verse:
g----------------------------------------|
d----------------------------------------|
a--1010101010101010101010101010--666--88-|
e------------------------------88--------|x2
"everybody pay attention to me"...

Pre-chorus:
(im not 100% sure about this so dont hesitate to make corrections)

g--------------------------------------------------------------|
d--------------------------------------------------------------|
a-----------------------------8----66-88-----------------------|
e--101010101010101010101010-10---44-----88---6666--4-4-4-4-4444|

Chorus:
g----------------------------------|
d----------------------------------|
a--10-10--101010------------888-88-|
e---------------8-8--888-66--------|x2
"this ain't a party"...
g---------------------------------------------------|
d---------------------------------------------------|
a--10-10-10-10-10-10-10-10-----------------88888888-|
e------------------8-8-8-8-8-8-8-8-66666666---------|x2
"if we alright to the end"...

Verse:
g-------------------------------------------|
d-------------------------------------------|
a--1010101010101010101010101010--666--88----|
e------------------------------88--------666|x2

Pre-chorus:

g--------------------------------------------------------------|
d--------------------------------------------------------------|
a-----------------------------8----66-88-----------------------|
e--101010101010101010101010-10---44-----88---6666--4-4-4-4-4444|

Chorus:
g----------------------------------|
d----------------------------------|
a--10-10--101010------------888-88-|
e---------------8-8--888-66--------|x2

g---------------------------------------------------|
d---------------------------------------------------|
a--10-10-10-10-10-10-10-10-----------------88888888-|
e------------------8-8-8-8-8-8-8-8-66666666---------|x2

Bridge:

g-------------------|
d-------------------|
a-------------------|
e--00------------22-|
"we kill the party,kill the party tonight"

back to lady speaking japanease
(no bass during this)

back to chorus:

g----------------------------------|
d----------------------------------|
a--10-10--101010------------888-88-|
e---------------8-8--888-66--------|x2

g---------------------------------------------------|
d---------------------------------------------------|
a--10-10-10-10-10-10-10-10-----------------88888888-|
e------------------8-8-8-8-8-8-8-8-66666666---------|x2

Outro:

g-------------------------------------------------|
d-------------------------------------------------|
a--6-6-6-6-6-6-6--68-8-8-8-8-8-8--810-10-10-10-10-|
e-------------------------------------------------|
"everybody break down"...

...and thats it! I usually slap the the top string over and over until the drums are 
done but whatever you want to do :).
Suggest correction
comments
print report bad tab
1 comment total.
+1 reply
headbang123 144 May 06, 2011 05:34 PM

the second part of the corus should be

g----------------------------------------------------------|
d----------------------------------------------------------|
a--10-10-10-10-10-10-10-10------------------------88888888-|
e-------------------------8-8-8-8-8-8-8-8-66666666---------sorry bout that...there arent any bass chords in this song
...for those of you expecting to weird,out of the ordinary,complicated tab

guest
You may want to rate the tab now too:
select rating
Wanna post a correction for this tab? Suggest correction