Oops, an error
Loading. Please wait.

Party Poison bass

version 1
version 1

Whole song

  • Changed to use open strings to sound more like the original.

Interactive

7,403 views 9 this week
1 commentread comment
1 2 3 4 5
x 6
add to favorites
×
Save as Personal and add changes to this tab that will be seen only by you. Learn more ›
×
You can save this tab as Personal to edit and correct it or add notes. All changes will be seen only by you. Learn more »
launch autoscroll
font size
0
reset
guitar tuner
edit
Autoscroll
slow
fast
+/-
esc
set tempo
stop
Author
Difficulty
This is my best shot at this song. Im 99% sure this is correct,when I played it to the 
song it sounded good. If you have any questions or corrections comment and ill respond as 
soon as i can.
Enjoy!

standard tuning (i didnt bother with the tuning too much)

Intro:
bass comes in after the lady speaking japenese is done speaking

G|---------------------------------------------------|
D|---------------------------------------------------|
A|--10--10---10-10-10-------------------8-8-8--8-8---|
E|--------------------8--8---8-8-8--6-6--------------|x2
you can listen to song for the timing...its not that hard to figure out

Verse:
G|--------------------------------------------------------------|
D|--------------------------------------------------------------|
A|--10-10-10-10-10-10-10-10-10-10-10-10-10-10-----6-6-6---8-8---|
E|--------------------------------------------8-8---------------|x2
"everybody pay attention to me"...

Pre-chorus:
(im not 100% sure about this so dont hesitate to make corrections)
G|--------------------------------------------------------------------------------------------------|
D|--------------------------------------------------------------------------------------------------|
A|------------------------------------------8-------6-6--8-8----------------------------------------|
E|--10-10-10-10-10-10-10-10-10-10-10-10--10-----4-4----------8-8----6-6-6-6---4--4--4--4--4-4-4-4---|

Chorus:
G|----------------------------------------------------|
D|----------------------------------------------------|
A|--10--10---10-10-10--------------------8-8-8--8-8---|
E|--------------------8--8---8-8-8--6-6---------------|x2
"this ain't a party"...
G|-------------------------------------------------------------------------------------------|
D|-------------------------------------------------------------------------------------------|
A|--10--10--10--10--10--10--10--10-----------------------------------------8-8-8-8-8-8-8-8---|
E|---------------------------------8--8--8--8--8--8--8--8--6-6-6-6-6-6-6-6-------------------|x2
"if we alright to the end"...

Verse:
G|--------------------------------------------------------------------|
D|--------------------------------------------------------------------|
A|--10-10-10-10-10-10-10-10-10-10-10-10-10-10-----6-6-6---8-8---------|
E|--------------------------------------------8-8-------------6-6-6---|x2

Pre-chorus:
G|--------------------------------------------------------------------------------------------------|
D|--------------------------------------------------------------------------------------------------|
A|------------------------------------------8-------6-6--8-8----------------------------------------|
E|--10-10-10-10-10-10-10-10-10-10-10-10--10-----4-4----------8-8----6-6-6-6---4--4--4--4--4-4-4-4---|

Chorus:
G|----------------------------------------------------|
D|----------------------------------------------------|
A|--10--10---10-10-10--------------------8-8-8--8-8---|
E|--------------------8--8---8-8-8--6-6---------------|x2

G|-------------------------------------------------------------------------------------------|
D|-------------------------------------------------------------------------------------------|
A|--10--10--10--10--10--10--10--10-----------------------------------------8-8-8-8-8-8-8-8---|
E|---------------------------------8--8--8--8--8--8--8--8--6-6-6-6-6-6-6-6-------------------|x2

Bridge:
G|-----------------------|
D|-----------------------|
A|-----------------------|
E|--0-0------------2-2---|
"we kill the party,kill the party tonight"

back to lady speaking japanease
(no bass during this)

back to chorus:
G|----------------------------------------------------|
D|----------------------------------------------------|
A|--10--10---10-10-10--------------------8-8-8--8-8---|
E|--------------------8--8---8-8-8--6-6---------------|x2

G|-------------------------------------------------------------------------------------------|
D|-------------------------------------------------------------------------------------------|
A|--10--10--10--10--10--10--10--10-----------------------------------------8-8-8-8-8-8-8-8---|
E|---------------------------------8--8--8--8--8--8--8--8--6-6-6-6-6-6-6-6-------------------|x2

Outro:
G|-----------------------------------------------------------------------|
D|-----------------------------------------------------------------------|
A|--6--6--6--6--6--6--6---6-8--8--8--8--8--8--8---8-10--10--10--10--10---|
E|-----------------------------------------------------------------------|
"everybody break down"...

...and thats it! I usually slap the the top string over and over until the drums are 
done but whatever you want to do :).

            
            
Suggest correction
Creating personal tab
Creating personal tab
You can edit any tab online and save it as your Personal.

You can edit, replace or remove any tab part or add personal notes – all changes will be seen only by you.

Personal tabs can be accessed anytime from any device, even offline.
Learn more »
comments
print report bad tab
1 comment total.
+1 reply
headbang123 154 May 06, 2011 01:34 PM

the second part of the corus should be

g----------------------------------------------------------|
d----------------------------------------------------------|
a--10-10-10-10-10-10-10-10------------------------88888888-|
e-------------------------8-8-8-8-8-8-8-8-66666666---------sorry bout that...there arent any bass chords in this song
...for those of you expecting to weird,out of the ordinary,complicated tab

guest
You may want to rate the tab now too:
select rating
Wanna post a correction for this tab? Suggest correction