Oops, an error
Loading. Please wait.

Party Poison Tab

version 1
version 1

Whole song

Interactive

38,194 views 66 this week
19 commentsread comments
1 2 3 4 5
excellent!
x 27
add to favorites
launch autoscroll
font size
0
reset
how to read this tab
guitar tuner
Tab Pro tools
  • play this tab
  • loop segment
  • change instrument
  • show fretboard
  • metronome
×
Best way to learn
"Party Poison"
Autoscroll
slow
fast
+/-
esc
set tempo
stop
Contributor
Standard tuning: EADGBe

Intro 1 (when the japanese girl speak)

e|-------------------------------------------------|
B|-------------------------------------------------|
G|-12-12--10-10------------8-8--------10-10--10-10-| x2
D|-12-12--10-10-10-10--8-8-8-8--10-10-10-10--10-10-|
A|-10-10--8--8--10-10--8-8-6-6--10-10-8--8---8--8--|
E|--------------8--8---6-6------8--8---------------|

the second time ends

e|------------------|
B|------------------|
G|-10/8/10/8--------|
D|-x-/x/x-/x--------|
A|-8-/6/8-/6--------|
E|------------------|

Intro 2

e|--------------------------------------------------|
B|--------------------------------------------------|
G|-12-12--10-10-------------8-8--------10-10--10-10-| x2
D|-12-12--10-10-10-10--8--8-8-8--10-10-10-10--10-10-|
A|-10-10--8--8--10-10--8--8-6-6--10-10-8--8---8--8--|
E|--------------8--8---6--6------8--8---------------|

Verse

e|------------------------------------------------|
B|------------------------------------------------|
G|-12121212121212121212----------------8888888----|  x2
D|-12121212121212121212-10101010101010-8888888----|
A|-10101010101010101010-10101010101010-6666666----|
E|----------------------8-8-8-8-8-8-8-------------|

then...

e|-------------------------------------------------------------------------------------|
B|-------------------------------------------------------------------------------------|
G|-8-7-5555555555555-5-7-88888888888-8-10-121212121212121212-12-11-101010101010101010--|
D|-8-7-5555555555555-5-7-88888888888-8-10-121212121212121212-12-11-101010101010101010--|
A|-6-5-3333333333333-3-5-66666666666-6-8--101010101010101010-10-9--8-8-8-8-8-8-8-8-8---|
E|-------------------------------------------------------------------------------------|

e|----------------------------------------|
B|----------------------------------------|
G|-55555555555555-12x12x12x12-10101010----|
D|-55555555555555-12x12x12x12-10101010----|
A|-33333333333333-10x10x10x10-8-8-8-8-----|
E|----------------------------------------|

Chorus

e|-------------------------------------------------|
B|-------------------------------------------------|
G|-12-12--10-10------------8-8--------10-10--10-10-| x4
D|-12-12--10-10-10-10--8-8-8-8--10-10-10-10--10-10-|
A|-10-10--8--8--10-10--8-8-6-6--10-10-8--8---8--8--|
E|--------------8--8---6-6------8--8---------------|

then...

e|--------------------------|
B|--------------------------|
G|--------------------------|
D|-------------3-5-5-3-(5)--|
A|----1--3--4---------------|
E|-3------------------------|

Verse


e|------------------------------------------------|
B|------------------------------------------------|
G|-12121212121212121212----------------8888888----|  x2
D|-12121212121212121212-10101010101010-8888888----|
A|-10101010101010101010-10101010101010-6666666----|
E|----------------------8-8-8-8-8-8-8-------------|

then...

e|-------------------------------------------------------------------------------------|
B|-------------------------------------------------------------------------------------|
G|-8-7-5555555555555-5-7-88888888888-8-10-121212121212121212-12-11-101010101010101010--|
D|-8-7-5555555555555-5-7-88888888888-8-10-121212121212121212-12-11-101010101010101010--|
A|-6-5-3333333333333-3-5-66666666666-6-8--101010101010101010-10-9--8-8-8-8-8-8-8-8-8---|
E|-------------------------------------------------------------------------------------|

then...

e|--------------------------|
B|--------------------------|
G|--------------------------|
D|-------------3-5-5-3-(5)--| x2
A|----1--3--4---------------|
E|-3------------------------|

e|-------------------------|
B|-------------------------|
G|-------------------------|  x2
D|-------------------------|
A|-10101088877766554-------|
E|-------------------------|

Bridge


e|---------------------------|
B|---------------------------|
G|-12~--10-12~--10-12~-------|
D|-12~--10-12~--10-12~-------|
A|-10~--8--10~--8--10~-------|
E|---------------------------|

Chorus till the end

e|------------------------------------------------|
B|------------------------------------------------|
G|-12-12--10-10------------8-8--------10-10-10-10-|
D|-12-12--10-10-10-10--8-8-8-8--10-10-10-10-10-10-|
A|-10-10--8--8--10-10--8-8-6-6--10-10-8--8--8--8--|
E|--------------8--8---6-6------8--8--------------|

End.

e|-----------------------------------------|
B|-----------------------------------------|
G|-------88888888-------1010101010101010---| x2
D|-10-10-88888888-10-10-1010101010101010---|
A|-10-10-66666666-10-10-8-8-8-8-8-8-8-8----|
E|-8--8-----------8--8---------------------|


e|-------|
B|-------|
G|-12~---|
D|-12~---|
A|-10~---|
E|-------|
comments
print report bad tab
19 comments total. Showing first comments.
0 reply
Escape2.0 wrote on November 30 2010, 05:54 am

Thank you so much, the tab's GREAT! Love this song to DEATH

+1 reply
pakopako wrote on November 30 2010, 09:16 am

Oooooh thanks a lot!!
Yes, this song is very good! \m/

+2 reply
Treeman574 wrote on December 5 2010, 01:18 am

Tab is great! Although I believe the pre-chorus is missing a line for the second time through.

e|----------------------------------------|
B|----------------------------------------|
G|-55555555555555-12x12x12x12-10101010----|
D|-55555555555555-12x12x12x12-10101010----|
A|-33333333333333-10x10x10x10-8-8-8-8-----|
E|----------------------------------------|

I want to post or [tab]
guest
You may want to rate the tab now too:
select rating
Please do not post tabs as comments. Select "correction" instead!