Oops, an error
Loading. Please wait.

Planetary Go Tab

version 1
version 1

Acoustic

Whole song

Interactive

3,141 views 6 this week
no commentswrite comment
1 2 3 4 5
please rate
add to favorites
launch autoscroll
font size
0
reset
how to read this tab
guitar tuner
Autoscroll
slow
fast
+/-
esc
set tempo
stop
Help us to improve Ultimate-Guitar.com Take our survey!
×
Contributor
Hi There :)
I've been requested to do this tab for this video of
Planetary Go Acoustic Cover :

               http://www.youtube.com/watch?v=QNWv35oBKwI

^^you should see the video..it will help you alot for getting the rythm^^

so here it is! :

verse (1) :

...somthing....just.......know.......

    G        b/cd       cd        EB/cd
e|--3--------3----------3--------3------|
B|--3--------3----------3--------3------|
G|--0--------0----------0--------x------|
D|--0----x4--2---x4-----2--x4----x--x1--|
A|--2--------2----------3--------1------|
E|--3-----------------------------------|

per-chors *(Part 1)* :

.....vilocity...make......dont.....let go....

      Em        C          G           D
e|----0---------0----------3-----------2---|
B|----0---------1----------3-----------3---|
G|----0---------0----------0-----------2---|
D|----2----x4---2----x4----0---x4------0---|
A|----2---------3----------2---------------|
E|----0--------------------3---------------|

per chours *(part 2)* :

......haven.....vacancy....just......just get Up And GO!!

      Em        C          Eb         C
e|----0---------0----------x---------0-------|
B|----0---------1----------4---------1-------|
G|----0---------0----------3---------0-------|
D|----2--x4-----2---x4-----1--x4-----2--x4---|
A|----2---------3--------------------3-------|
E|----0--------------------------------------|


Chours(look the video for strumming) :

..And GO!!

e|----3--3--3---3-3---|
B|----3--3--3---3-3---|
G|----0--0--0---0-0---|
D|----0--0--0---2-x---|     x3
A|----2--2--2---3-2---|
E|----3--3--3---------|

for the 4th time play this:

e|----3-3---------------|
B|----3-3---------------|
G|----0-0----5----3-----|
D|----0-0----5----3-----|
A|----2-2----3----1-----|
E|----3-3---------------|


verse (2)

...ladies...
    G        b/cd       cd
e|--3--------3----------3-------------|
B|--3--------3----------3-------------|
G|--0--------0----------0-------5--3--|
D|--0----x4--2---x4-----2--x4---5--3--|    x2
A|--2--------2----------3-------3--1--|
E|--3---------------------------------|

then :
......I Cant...Slow DOwn....I Wont be ...
e|------------------------------------------------|
B|---------------13--14---------------------------|
G|-----12---12----x---x-----12--12--10--10---11---|
D|------x----x---11--12------x---x---x---x----x---|
A|-----10---10--------------10--10---8---8----9---|
E|------------------------------------------------|
                                                          x2
e|------------------------------------------------|
B|---------------13--14---------------------------|
G|-----12---12----x---x-----12--12----------------|
D|------x----x---11--12------x---x----10--8-------|
A|-----10---10--------------10--10----10--8-------|
E|-------------------------------------8--6-------|

per chours - same

chours - same

verse (3) - same as verse (2)..


chours -- same

then bridge:

e|----12--12--x--12-12--x-12---|
B|----13--13--x--13-13--x-13---|   figure the rhtym it's just sturimng
G|----12--12--x--12-12--x-12---|   up and down funky way..
D|-----------------------------|
A|-----------------------------|
E|-----------------------------|


Bridge Last Part :

strum fast! :)

e|----12---------14--------|
B|----13--x8-----15--x4----|
G|----12---------14--------|
D|-------------------------|
A|-------------------------|
E|----  -------------------|

then chours 4 times and end!
please comment this song is one of the best in the world :)
Enjoy! rock On!
comments
We did not receive enough feedback on this tab! Please rate:
print report bad tab
1 2 3 4 5
I want to post or [tab]
guest
You may want to rate the tab now too:
select rating
Please do not post tabs as comments. Select "correction" instead!