Oops, an error
Loading. Please wait.

Planetary Go Bass Tab

version 1
version 1

Whole song

Interactive

39,428 views 153 this week
5 commentsread comments
1 2 3 4 5
excellent!
x 22
add to favorites
launch autoscroll
font size
0
reset
guitar tuner
Autoscroll
slow
fast
+/-
esc
set tempo
stop
Help us to improve Ultimate-Guitar.com Take our survey!
×
Author
Tabbed by: Rocksnotdead101
Email:kalo8@hotmail.co.uk

Tuning: Standard EADG

Intro:
 "There might be something outside your window..."
G|-----------------------------------------------------------------------------------------------|
D|-----------------------------------------------------------------------------------------------|
A|-------------------------------22222222-33333333-------------------------------22222222-3333333|
E|-33333333-33333333-------------------------------33333333-33333333-----------------------------|

Chorus - "If my velocity starts to make you sweat..."
G|----------------------------------------------------------------------|
D|----------------------------------------------------------------------|
A|-7~---3~---------5~---7~---3~----------6~--3~-------------------------|
E|--------------3~------------------------------------------------------|

Verse:
G|------------------------------------------------------4----4----4--5--5---------5----5---------|
D|----5----5----5--3-5----5----5----5--3-5-------------------------------------------------------|
A|----------------------------------------------------2----2----2--------------3----3------3~-1~-|
E|-3----3----3---------3----3----3---------------------------------------------------------------|

Bridge 1:
"You're unbelieveable uh, so unbelievable uh..."
G|-----------------------------------------------------------------------------------|
D|-----------------------------------------------------------------------------------|
A|-------------------22222222-33333333-------------------22222222-3333333--3~-1~-----|
E|-33333333-33333333-------------------33333333-33333333-----------------------------|

Bridge 2:
"You keep eternity, give us the Radio..."
   1&2&3&4& 1&2&3&4& 1&2&3&4& 1&2&3&4&
G|---------------------------------------|
D|---------------------------------------|
A|--5-5-5-5--7-7-7-7--3-3-3-3--3-3-3-3---|
E|---------------------------------------| On last repeat of bridge play straight eights on the 3.

Song Structure:

INTRO x1
CHORUS x1
VERSE x6
CHORUS x1
VERSE x2
BRIDGE 1 x1
VERSE x2
CHORUS 1
VERSE x2
BRIDGE 2 x4
VERSE x6

| /  slide up
| \  slide down
| h  hammer-on
| p  pull-off
| ~  vibrato
| +  harmonic
| x  Mute note
Suggest correction new What's this?
You can suggest a correction to this tab. Community and Mods will review your correction and vote to approve or reject it.
comments
print report bad tab
5 comments total. Showing first comments.
0 reply
nafisaht51 12 wrote on August 10 2014, 09:11 am

Lack of accuracy. Tab incomplete.

0 reply
talkischeap 13 wrote on August 24 2014, 06:26 am

Cool tab. My pinky is burning trying to play the chorus though D:

0 reply
bea.blue.badger 27 wrote on February 21 2015, 04:57 pm

Lack of accuracy. Here you can tell that these tabs are totally wrong: https://soundcloud.com/my-chemical-romance/planerary-go-stems-06-bass

There are parts where the where the the pitch is meant to go up but this tab says down.

guest
You may want to rate the tab now too:
select rating
Please do not post tabs as comments. Select "correction" instead!