Oops, an error
Loading. Please wait.

Planetary Go Tab

version 1
version 1

Whole song

Interactive

29,988 views 75 this week
3 commentsread comments
1 2 3 4 5
accurate
x 14
add to favorites
launch autoscroll
font size
0
reset
how to read this tab
guitar tuner
Tab Pro tools
  • play this tab
  • loop segment
  • change instrument
  • show fretboard
  • metronome
Autoscroll
slow
fast
+/-
esc
set tempo
stop
Contributor
*I Have Updated The Tab i think now it's 98% Correct :)*
please send me a note if you think i should add something here.

!!!!!!!This Is One Of The Best Song EVER!!!!

here is me playing   this song enjoy:

http://www.youtube.com/watch?v=Y9a2VnBLIC0

you can learn a lot from this video :)



$$please comment and enjoy!!$$


Cool Song From New MCR Album!
fun song to play.
Enjoy , for any mistake let me know.


first verser:

no guitar just bass.

Per Chours (Part 1):
.....vilocigty...........Make You sweat..
e|--7--------------------8--------------------------------|
B|--8--------------------8-----------------3--~~---10---~~|
G|--9--------------------9-----------------4-------11-----|
D|--9--------------------10--let it ring---5--~~---12-----|
A|-----let it ring------------------------------~~--------|
E|-------------------------------------------~------------|

Per Chours (Part 2):
.......................................just........get up
e|---7------------------------------------------------------------|
B|---8--------------8-------------------11----~~---8----~~--------|
G|---9--------------9-------------------12----~~---9----~~--------|
D|---9--------------10---let it ring----13----~~---10---~~--------|
A|----let it ring-------------------------------------------------|
E|----------------------------------------------------------------|


guitar 2:

e|--------------------------|
B|--------------------------|
G|--------------------------|
D|--------------------------|
A|----2v--3v--------5V------|
E|-------------3v-----------|

part 2:

e|-----------------------|
B|-----------------------|
G|-----------------------|
D|-----------------------|
A|----2v--3v----6vv--3v--|
E|-----------------------|

chours guitar 1 :
...go!.........
e|-------------------------------|
B|-------------------------------|
G|----12--12---12----------------|    x3
D|----x---x----x--------10-----9-|
A|----10--10---10-------x---s--x-|
E|----------------------8------7-|

then :

e|------------------------------|
B|------------------------------|
G|----12--12--------------------|
D|----x---x---------------------|
A|----10--10-----------10---8-b-|
E|---------------------8----6-b-|

guitar 2 (i'm not sure about this one if somene can correct me do it :):

e|---------------------------|
B|---------------------------|
G|-----12--12--12------------|
D|-------------------10-9-v--|
A|----10-10-10---------------|
E|---------------------------|

bothe do the :
e|-------------|
B|-------------|
G|-------------|
D|-------------|
A|----10--8-b--|
E|----8---6-b--|

verse 2 :
 It's bass but you can do it with guitar 
( 2 times) :
e|------------------------------------------------|
B|------------------------------------------------|
G|------------------------------------------------|
D|------------------------------------------------|
A|-------------------------------------10---8--b--|
E|----3-3-3-2-3---x2--7-7-7-6-7--8--8--8----6--b--|


(Both Guitars 2 times ) :

e|---------------------------------------------------------|
B|---------------------------------------------------------|
G|--12--12-------15--15--16-v-----12--12---10-10---11------|
D|--x----x-------x---x---x--v-----x---x----x--x----x-------| x2
A|--10--10-------13--13--14-v-----10--10---8--8----9-------|
E|---------------------------------------------------------|


e|-----------------------|
B|-----------------------|
G|----12-12--------------|
D|----x--x---------------|
A|----10-10-----10--8-b--|
E|--------------8---6-b--|

then per chours :

Per Chours (Part 1):
.....vilocigty...........Make You sweat..
e|--7--------------------8--------------------------------|
B|--8--------------------8-----------------3--~~---10---~~|
G|--9--------------------9-----------------4-------11-----|
D|--9--------------------10--let it ring---5--~~---12-----|
A|-----let it ring------------------------------~~--------|
E|-------------------------------------------~------------|

Per Chours (Part 2):
.......................................just........get up
e|---7------------------------------------------------------------|
B|---8--------------8-------------------11----~~---8----~~--------|
G|---9--------------9-------------------12----~~---9----~~--------|
D|---9--------------10---let it ring----13----~~---10---~~--------|
A|----let it ring-------------------------------------------------|
E|----------------------------------------------------------------|

guitar 2:

e|--------------------------|
B|--------------------------|
G|--------------------------|
D|--------------------------|
A|----2v--3v--------5V------|
E|-------------3v-----------|

part 2:

e|-----------------------|
B|-----------------------|
G|-----------------------|
D|-----------------------|
A|----2v--3v----6vv--3v--|
E|-----------------------|


chours :

e|-------------------------------|
B|-------------------------------|
G|----12--12---12----------------|    x3
D|----x---x----x--------10-----9-|
A|----10--10---10-------x---s--x-|
E|----------------------8------7-|

then :

e|------------------------------|
B|------------------------------|
G|----12--12--------------------|
D|----x---x---------------------|
A|----10--10-----------10---8-b-|
E|---------------------8----6-b-|

guitar 2:
e|---------------------------|
B|---------------------------|
G|-----12--12--12------------|
D|-------------------10-9-v--|
A|----10-10-10---------------|
E|---------------------------|


bothe do the :
e|-------------|
B|-------------|
G|-------------|
D|-------------|
A|----10--8-b--|
E|----8---6-b--|


then without guitar (you Unbelievable..)

then verse:

e|----------------------------------------------------|
B|----------------------------------------------------|
G|----12--12--15--15--16-v-----12--12---10-10-11------|
D|----x---x---x---x---x--v-----x---x----x--x--x-------| x2
A|----10--10--13--13--14-v-----10--10---8--8--9-------|
E|----------------------------------------------------|


e|-----------------------|
B|-----------------------|
G|----12-12--------------|
D|----x--x---------------|
A|----10-10-----10--8-b--|
E|--------------8---6-b--|

then per chours and chours again


bridge  just guitar play this (funky rythm) :


e|----12-12-----12----|
B|----13-13-x-x-13-x-x|
G|----12-12-x-x-12-x-x|
D|--------------------|
A|--------------------|
E|--------------------|

or :

e|----8-8-x-8-8-x-x--|
B|----8-8-x-8-8-x-x--|
G|----9-9-x-9-9-x-x--|
D|-------------------|
A|-------------------|
E|-------------------|

then chours to the end.
please comment and enjoy!
comments
print report bad tab
3 comments total.
0 reply
SocksAndTrees wrote on April 4 2012, 02:20 pm

Great tab and all but: vilocigty? Lol. It's Velocity :)

-2 reply
666jason666 wrote on June 19 2014, 09:00 pm

Clearly wrong.

0 reply
arigressi0104 wrote on August 16 2015, 12:19 pm

What means V? I see that you add it in some tabs...

I want to post or [tab]
guest
You may want to rate the tab now too:
select rating
Please do not post tabs as comments. Select "correction" instead!