Oops, an error
Loading. Please wait.

Planetary Go Bass Tab

version 2
version 2

Whole song

Interactive

5,491 views 9 this week
1 commentread comment
1 2 3 4 5
x 8
add to favorites
launch autoscroll
font size
0
reset
guitar tuner
×
Best way to learn
"Planetary Go"
Autoscroll
slow
fast
+/-
esc
set tempo
stop
Author
Difficulty
Tuning
  follow
novice
E A D G B E
Use a pick and a distortion/fuzz effect to get the right tone.

[Intro] - Bass starts at 0:10 (No distortion in this part)

   G                 G                 B                 C    
G|-----------------|-----------------|-----------------|-----------------|
D|-----------------|-----------------|-----------------|-----------------|
A|-----------------|-----------------|-2-2-2-2-2-2-2-2-|-3-3-3-3-3-3-3-3-|
E|-3-3-3-3-3-3-3-3-|-3-3-3-3-3-3-3-3-|-----------------|-----------------|
PM . . . . . . . .   . . . . . . . .   . . . . . . . .   . . . . . . . .

   G                 G                 B                 C    
G|-----------------|-----------------|-----------------|-----------------|
D|-----------------|-----------------|-----------------|-----------------|
A|-----------------|-----------------|-2-2-2-2-2-2-2-2-|-3-3-3-3-3-3-4-5-|
E|-3-3-3-3-3-3-3-3-|-3-3-3-3-3-3-3-3-|-----------------|-----------------|
PM . . . . . . . .   . . . . . . . .   . . . . . . . .   . . . . . . . .

[Pre-Chorus] 

 E                 C                 G                 D
G|-----------------|-----------------|-----------------|-----------------|
D|-----------------|-----------------|-----------------|-----------------|
A|-----------------|-3---------------|-----------------|-5---------------|
E|-0---------------|-----------------|-3---------------|-----------------|

   E                 C                 D#               C
G|-----------------|-----------------|-----------------|-5555555555555---|
D|-----------------|-----------------|-----------------|-----------------|
A|-----------------|-3----------(3)/-|-6---------------|-----------------|
E|-0---------------|-----------------|-----------------|-----------------|

[Chorus]

   G                 G                 B                 C  
G|-----------------|-----------------|---4---4---4---4-|---5---5---------|
D|---5---5---5-3-5-|---5---5---5-3-5-|-----------------|-----------------|
A|-----------------|-----------------|-2---2---2---2---|-3---3---3-\-1---| x2
E|-3---3---3-------|-3---3---3-------|-----------------|-----------------|

[Verse] 

   G                 G                 B                 C  
G|-----------------|-----------------|---4---4---4---4-|---5---5---------|
D|---5---5---5-3-5-|---5---5---5-3-5-|-----------------|-----------------|
A|-----------------|-----------------|-2---2---2---2---|-3---3---3-\-1---| x4
E|-3---3---3-------|-3---3---3-------|-----------------|-----------------|

[Pre-Chorus]

  E                 C                 G                 D
G|-----------------|-----------------|-----------------|-----------------|
D|-----------------|-----------------|-----------------|-----------------|
A|-----------------|-3---------------|-----------------|-5---------------|
E|-0---------------|-----------------|-3---------------|-----------------|

   E                 C                 D#               C
G|-----------------|-----------------|-----------------|-5555555555555---|
D|-----------------|-----------------|-----------------|-----------------|
A|-----------------|-3----------(3)/-|-6---------------|-----------------|
E|-0---------------|-----------------|-----------------|-----------------|

[Chorus]

   G                 G                 B                 C  
G|-----------------|-----------------|---4---4---4---4-|---5---5---------|
D|---5---5---5-3-5-|---5---5---5-3-5-|-----------------|-----------------|
A|-----------------|-----------------|-2---2---2---2---|-3---3---3-\-1---| x2
E|-3---3---3-------|-3---3---3-------|-----------------|-----------------|

[Bridge] - (No distortion in this part - Turn it back on when you play the 8th measure.)

   G                 G                 B                 C    
G|-----------------|-----------------|-----------------|-----------------|
D|-----------------|-----------------|-----------------|-----------------|
A|-----------------|-----------------|-2-2-2-2-2-2-2-2-|-3-3-3-3-3-3-3-3-|
E|-3-3-3-3-3-3-3-3-|-3-3-3-3-3-3-3-3-|-----------------|-----------------|
PM . . . . . . . .   . . . . . . . .   . . . . . . . .   . . . . . . . .
                                                        
   G                 G                 B                 C    
G|-----------------|-----------------|-----------------|-----------------|
D|-----------------|-----------------|-----------------|-----------------|
A|-----------------|-----------------|-2-2-2-2-2-2-2-2-|-3-3-3-3-3-------|
E|-3-3-3-3-3-3-3-3-|-3-3-3-3-3-3-3-3-|-----------------|-----------------|
PM . . . . . . . .   . . . . . . . .   . . . . . . . .   . . . . . 

[Chorus]

   G                 G                 B                 C  
G|-----------------|-----------------|---4---4---4---4-|---5---5---------|
D|---5---5---5-3-5-|---5---5---5-3-5-|-----------------|-----------------|
A|-----------------|-----------------|-2---2---2---2---|-3---3---3-\-1---| x2
E|-3---3---3-------|-3---3---3-------|-----------------|-----------------|

[Pre-Chorus]

    E                 C                 G                 D
G|-----------------|-----------------|-----------------|-----------------|
D|-----------------|-----------------|-----------------|-----------------|
A|-----------------|-3---------------|-----------------|-5---------------|
E|-0---------------|-----------------|-3---------------|-----------------|

   E                 C                 D#               C
G|-----------------|-----------------|-----------------|-5555555555555---|
D|-----------------|-----------------|-----------------|-----------------|
A|-----------------|-3----------(3)/-|-6---------------|-----------------|
E|-0---------------|-----------------|-----------------|-----------------|


[Chorus]

   G                 G                 B                 C  
G|-----------------|-----------------|---4---4---4---4-|---5---5---------|
D|---5---5---5-3-5-|---5---5---5-3-5-|-----------------|-----------------|
A|-----------------|-----------------|-2---2---2---2---|-3---3---3-\-1---| x2
E|-3---3---3-------|-3---3---3-------|-----------------|-----------------|

[Bridge] - (There's a different rythm in this part, so I've marked the beats below.)

   D                 E                 C                C    
G|-----------------|-----------------|-----------------|-----------------|
D|-----------------|-----------------|-----------------|-----------------|
A|---5---5---5---5-|---7---7---7---7-|---3---3---3---3-|---3---3---3---3-| x3
E|-----------------|-----------------|-----------------|-----------------|
PM   .   .   .   .     .   .   .   .     .   .   .   .     .   .   .   .
   1 + 2 + 3 + 4 +   1 + 2 + 3 + 4 +   1 + 2 + 3 + 4 +   1 + 2 + 3 + 4 +

     D                 E               C                D   
G|-----------------|-----------------|-----------------|-----------------|
D|-----------------|-----------------|-----------------|-----------------|
A|---5---5---5---5-|---7---7---7---7-|-3-3-3-3-3-3-3-3-|-555555555-------| 
E|-----------------|-----------------|-----------------|-----------------|
PM   .   .   .   .     .   .   .   .     
   1 + 2 + 3 + 4 +   1 + 2 + 3 + 4 +   

[Outro]

   G                 G                 B                 C  
G|-----------------|-----------------|---4---4---4---4-|---5---5---------|
D|---5---5---5-3-5-|---5---5---5-3-5-|-----------------|-----------------|
A|-----------------|-----------------|-2---2---2---2---|-3---3---3-\-1---| x5
E|-3---3---3-------|-3---3---3-------|-----------------|-----------------|

   G                 G                 B                 C  
G|-----------------|-----------------|---4---4---4---4-|---5---5---------|
D|---5---5---5-3-5-|---5---5---5-3-5-|-----------------|-----------------|
A|-----------------|-----------------|-2---2---2---2---|-3---3-----------| 
E|-3---3---3-------|-3---3---3-------|-----------------|-----------------|

************************************

| /   Slide up
| \   Slide down
| PM  Palm mute

************************************
Suggest correction
comments
print report bad tab
1 comment total.
0 reply
Theaceof8S 12 Mar 11, 2017 05:46 PM, edited at 10:46 pm

A++ I had already known the song, just needed a refresher - This tab agrees with my muscle memory; 100%!

guest
You may want to rate the tab now too:
select rating
Wanna post a correction for this tab? Suggest correction