Oops, an error
Loading. Please wait.

Planetary Go Bass Tab

version 2
version 2

Whole song

Interactive

5,167 views 24 this week
no commentswrite comment
1 2 3 4 5
excellent!
x 7
add to favorites
launch autoscroll
font size
0
reset
guitar tuner
Autoscroll
slow
fast
+/-
esc
set tempo
stop
Help us to improve Ultimate-Guitar.com Take our survey!
×
Author
Difficulty
INTRO

G|------------------|------------------|------------------|------------------|
D|------------------|------------------|------------------|------------------|
A|------------------|------------------|------------------|------------------|
E|------------------|------------------|------------------|------------------|
   1 + 2 + 3 + 4 +    1 + 2 + 3 + 4 +    1 + 2 + 3 + 4 +    1 + 2 + 3 + 4 +

G|------------------|------------------|------------------|------------------|
D|------------------|------------------|------------------|------------------|
A|------------------|------------------|-2-2-2-2-2-2-2-2--|-3-3-3-3-3-3-3-3--|
E|-3-3-3-3-3-3-3-3--|-3-3-3-3-3-3-3-3--|------------------|------------------|
   1 + 2 + 3 + 4 +    1 + 2 + 3 + 4 +    1 + 2 + 3 + 4 +    1 + 2 + 3 + 4 +
   P.M. ---------------------------------------------------------------------|

G|------------------|------------------|------------------|------------------|
D|------------------|------------------|------------------|------------------|
A|------------------|------------------|-2-2-2-2-2-2-2-2--|-3-3-3-3-3-3-3-5--|
E|-3-3-3-3-3-3-3-3--|-3-3-3-3-3-3-3-3--|------------------|------------------|
   1 + 2 + 3 + 4 +    1 + 2 + 3 + 4 +    1 + 2 + 3 + 4 +    1 + 2 + 3 + 4 +
   P.M. ---------------------------------------------------------------------|

PRE-CHORUS

G|------------------|------------------|------------------|------------------|
D|------------------|------------------|------------------|------------------|
A|------------------|-3----------------|------------------|-5----------------|
E|-0----------------|------------------|-3----------------|------------------|
   1 + 2 + 3 + 4 +    1 + 2 + 3 + 4 +    1 + 2 + 3 + 4 +    1 + 2 + 3 + 4 +

G|------------------|------------------|------------------|-5555555555555----|
D|------------------|------------------|------------------|------------------|
A|------------------|-3------------(3)/|-6----------------|------------------|
E|-0----------------|------------------|------------------|------------------|
   1 + 2 + 3 + 4 +    1 + 2 + 3 + 4 +    1 + 2 + 3 + 4 +    1 + 2 + 3 + 4 +

INTERLUDE

G|------------------|------------------|---4---4---4---4--|---5---5----------|
D|---5---5---5-3-5--|---5---5---5-3-5--|------------------|------------------|
A|------------------|------------------|-2---2---2---2----|-3---3---3---1----|
E|-3---3---3--------|-3---3---3--------|------------------|------------------|
   1 + 2 + 3 + 4 +    1 + 2 + 3 + 4 +    1 + 2 + 3 + 4 +    1 + 2 + 3 + 4 +

G|------------------|------------------|---4---4---4---4--|---5---5----------|
D|---5---5---5-3-5--|---5---5---5-3-5--|------------------|------------------|
A|------------------|------------------|-2---2---2---2----|-3---3---3---1----|
E|-3---3---3--------|-3---3---3--------|------------------|------------------|
   1 + 2 + 3 + 4 +    1 + 2 + 3 + 4 +    1 + 2 + 3 + 4 +    1 + 2 + 3 + 4 +

VERSE

G|------------------|------------------|---4---4---4---4--|---5---5----------|
D|---5---5---5-3-5--|---5---5---5-3-5--|------------------|------------------|
A|------------------|------------------|-2---2---2---2----|-3---3---3---1----|
E|-3---3---3--------|-3---3---3--------|------------------|------------------|
   1 + 2 + 3 + 4 +    1 + 2 + 3 + 4 +    1 + 2 + 3 + 4 +    1 + 2 + 3 + 4 +

G|------------------|------------------|---4---4---4---4--|---5---5----------|
D|---5---5---5-3-5--|---5---5---5-3-5--|------------------|------------------|
A|------------------|------------------|-2---2---2---2----|-3---3---3---1----|
E|-3---3---3--------|-3---3---3--------|------------------|------------------|
   1 + 2 + 3 + 4 +    1 + 2 + 3 + 4 +    1 + 2 + 3 + 4 +    1 + 2 + 3 + 4 +

G|------------------|------------------|---4---4---4---4--|---5---5----------|
D|---5---5---5-3-5--|---5---5---5-3-5--|------------------|------------------|
A|------------------|------------------|-2---2---2---2----|-3---3---3---1----|
E|-3---3---3--------|-3---3---3--------|------------------|------------------|
   1 + 2 + 3 + 4 +    1 + 2 + 3 + 4 +    1 + 2 + 3 + 4 +    1 + 2 + 3 + 4 +

G|------------------|------------------|---4---4---4---4--|---5---5----------|
D|---5---5---5-3-5--|---5---5---5-3-5--|------------------|------------------|
A|------------------|------------------|-2---2---2---2----|-3---3---3---1----|
E|-3---3---3--------|-3---3---3--------|------------------|------------------|
   1 + 2 + 3 + 4 +    1 + 2 + 3 + 4 +    1 + 2 + 3 + 4 +    1 + 2 + 3 + 4 +

PRE-CHORUS

G|------------------|------------------|------------------|------------------|
D|------------------|------------------|------------------|------------------|
A|------------------|-3----------------|------------------|-5----------------|
E|-0----------------|------------------|-3----------------|------------------|
   1 + 2 + 3 + 4 +    1 + 2 + 3 + 4 +    1 + 2 + 3 + 4 +    1 + 2 + 3 + 4 +

G|------------------|------------------|------------------|-555555555--------|
D|------------------|------------------|------------------|------------------|
A|------------------|-3------------(3)/|-6----------------|------------------|
E|-0----------------|------------------|------------------|------------------|
   1 + 2 + 3 + 4 +    1 + 2 + 3 + 4 +    1 + 2 + 3 + 4 +    1 + 2 + 3 + 4 +

CHORUS

G|------------------|------------------|---4---4---4---4--|---5---5----------|
D|---5---5---5-3-5--|---5---5---5-3-5--|------------------|------------------|
A|------------------|------------------|-2---2---2---2----|-3---3---3---1----|
E|-3---3---3--------|-3---3---3--------|------------------|------------------|
   1 + 2 + 3 + 4 +    1 + 2 + 3 + 4 +    1 + 2 + 3 + 4 +    1 + 2 + 3 + 4 +

G|------------------|------------------|---4---4---4---4--|---5---5----------|
D|---5---5---5-3-5--|---5---5---5-3-5--|------------------|------------------|
A|------------------|------------------|-2---2---2---2----|-3---3---3---1----|
E|-3---3---3--------|-3---3---3--------|------------------|------------------|
   1 + 2 + 3 + 4 +    1 + 2 + 3 + 4 +    1 + 2 + 3 + 4 +    1 + 2 + 3 + 4 +

PRE-VERSE

G|------------------|------------------|------------------|------------------|
D|------------------|------------------|------------------|------------------|
A|------------------|------------------|-2-2-2-2-2-2-2-2--|-3-3-3-3-3-3-3-3--|
E|-3-3-3-3-3-3-3-3--|-3-3-3-3-3-3-3-3--|------------------|------------------|
   1 + 2 + 3 + 4 +    1 + 2 + 3 + 4 +    1 + 2 + 3 + 4 +    1 + 2 + 3 + 4 +
   P.M. ---------------------------------------------------------------------|

G|------------------|------------------|------------------|------------------|
D|------------------|------------------|------------------|------------------|
A|------------------|------------------|-2-2-2-2-2-2-2-2--|-3-3-3-3-3--------|
E|-3-3-3-3-3-3-3-3--|-3-3-3-3-3-3-3-3--|------------------|------------------|
   1 + 2 + 3 + 4 +    1 + 2 + 3 + 4 +    1 + 2 + 3 + 4 +    1 + 2 + 3 + 4 +
   P.M. --------------------------------------------------|

VERSE


G|------------------|------------------|---4---4---4---4--|---5---5----------|
D|---5---5---5-3-5--|---5---5---5-3-5--|------------------|------------------|
A|------------------|------------------|-2---2---2---2----|-3---3---3---1----|
E|-3---3---3--------|-3---3---3--------|------------------|------------------|
   1 + 2 + 3 + 4 +    1 + 2 + 3 + 4 +    1 + 2 + 3 + 4 +    1 + 2 + 3 + 4 +

G|------------------|------------------|---4---4---4---4--|---5---5----------|
D|---5---5---5-3-5--|---5---5---5-3-5--|------------------|------------------|
A|------------------|------------------|-2---2---2---2----|-3---3---3---1----|
E|-3---3---3--------|-3---3---3--------|------------------|------------------|
   1 + 2 + 3 + 4 +    1 + 2 + 3 + 4 +    1 + 2 + 3 + 4 +    1 + 2 + 3 + 4 +

PRE-CHORUS

G|------------------|------------------|------------------|------------------|
D|------------------|------------------|------------------|------------------|
A|------------------|-3----------------|------------------|-5----------------|
E|-0----------------|------------------|-3----------------|------------------|
   1 + 2 + 3 + 4 +    1 + 2 + 3 + 4 +    1 + 2 + 3 + 4 +    1 + 2 + 3 + 4 +

G|------------------|------------------|------------------|-5555555555555----|
D|------------------|------------------|------------------|------------------|
A|------------------|-3------------(3)/|-6----------------|------------------|
E|-0----------------|------------------|------------------|------------------|
   1 + 2 + 3 + 4 +    1 + 2 + 3 + 4 +    1 + 2 + 3 + 4 +    1 + 2 + 3 + 4 +

CHORUS

G|------------------|------------------|---4---4---4---4--|---5---5----------|
D|---5---5---5-3-5--|---5---5---5-3-5--|------------------|------------------|
A|------------------|------------------|-2---2---2---2----|-3---3---3---1----|
E|-3---3---3--------|-3---3---3--------|------------------|------------------|
   1 + 2 + 3 + 4 +    1 + 2 + 3 + 4 +    1 + 2 + 3 + 4 +    1 + 2 + 3 + 4 +

G|------------------|------------------|---4---4---4---4--|---5---5----------|
D|---5---5---5-3-5--|---5---5---5-3-5--|------------------|------------------|
A|------------------|------------------|-2---2---2---2----|-3---3---3---1----|
E|-3---3---3--------|-3---3---3--------|------------------|------------------|
   1 + 2 + 3 + 4 +    1 + 2 + 3 + 4 +    1 + 2 + 3 + 4 +    1 + 2 + 3 + 4 +

BRIDGE

G|------------------|------------------|------------------|------------------|
D|------------------|------------------|------------------|------------------|
A|-X-5---5---5---5--|---7---7---7---7--|---3---3---3---3--|---3---3---3---3--|
E|------------------|------------------|------------------|------------------|
   1 + 2 + 3 + 4 +    1 + 2 + 3 + 4 +    1 + 2 + 3 + 4 +    1 + 2 + 3 + 4 +

G|------------------|------------------|------------------|------------------|
D|------------------|------------------|------------------|------------------|
A|---5---5---5---5--|---7---7---7---7--|---3---3---3---3--|---3---3---3---3--|
E|------------------|------------------|------------------|------------------|
   1 + 2 + 3 + 4 +    1 + 2 + 3 + 4 +    1 + 2 + 3 + 4 +    1 + 2 + 3 + 4 +

G|------------------|------------------|------------------|------------------|
D|------------------|------------------|------------------|------------------|
A|---5---5---5---5--|---7---7---7---7--|---3---3---3---3--|---3---3---3---3--|
E|------------------|------------------|------------------|------------------|
   1 + 2 + 3 + 4 +    1 + 2 + 3 + 4 +    1 + 2 + 3 + 4 +    1 + 2 + 3 + 4 +

G|------------------|------------------|------------------|------------------|
D|------------------|------------------|------------------|------------------|
A|---5---5---5---5--|---7---7---7---7--|-3-3-3-3-3-3-3-3--|-555555555--------|
E|------------------|------------------|------------------|------------------|
   1 + 2 + 3 + 4 +    1 + 2 + 3 + 4 +    1 + 2 + 3 + 4 +    1 + 2 + 3 + 4 +

CHORUS

G|------------------|------------------|---4---4---4---4--|---5---5----------|
D|---5---5---5-3-5--|---5---5---5-3-5--|------------------|------------------|
A|------------------|------------------|-2---2---2---2----|-3---3---3---1----|
E|-3---3---3--------|-3---3---3--------|------------------|------------------|
   1 + 2 + 3 + 4 +    1 + 2 + 3 + 4 +    1 + 2 + 3 + 4 +    1 + 2 + 3 + 4 +

G|------------------|------------------|---4---4---4---4--|---5---5----------|
D|---5---5---5-3-5--|---5---5---5-3-5--|------------------|------------------|
A|------------------|------------------|-2---2---2---2----|-3---3---3---1----|
E|-3---3---3--------|-3---3---3--------|------------------|------------------|
   1 + 2 + 3 + 4 +    1 + 2 + 3 + 4 +    1 + 2 + 3 + 4 +    1 + 2 + 3 + 4 +

G|------------------|------------------|---4---4---4---4--|---5---5----------|
D|---5---5---5-3-5--|---5---5---5-3-5--|------------------|------------------|
A|------------------|------------------|-2---2---2---2----|-3---3---3---1----|
E|-3---3---3--------|-3---3---3--------|------------------|------------------|
   1 + 2 + 3 + 4 +    1 + 2 + 3 + 4 +    1 + 2 + 3 + 4 +    1 + 2 + 3 + 4 +

G|------------------|------------------|---4---4---4---4--|---5---5----------|
D|---5---5---5-3-5--|---5---5---5-3-5--|------------------|------------------|
A|------------------|------------------|-2---2---2---2----|-3---3---3---1----|
E|-3---3---3--------|-3---3---3--------|------------------|------------------|
   1 + 2 + 3 + 4 +    1 + 2 + 3 + 4 +    1 + 2 + 3 + 4 +    1 + 2 + 3 + 4 +

OUTRO

G|------------------|------------------|---4---4---4---4--|---5---5----------|
D|---5---5---5-3-5--|---5---5---5-3-5--|------------------|------------------|
A|------------------|------------------|-2---2---2---2----|-3---3---3---1----|
E|-3---3---3--------|-3---3---3--------|------------------|------------------|
   1 + 2 + 3 + 4 +    1 + 2 + 3 + 4 +    1 + 2 + 3 + 4 +    1 + 2 + 3 + 4 +

G|------------------|------------------|---4---4---4---4--|---5---5----------|
D|---5---5---5-3-5--|---5---5---5-3-5--|------------------|------------------|
A|------------------|------------------|-2---2---2---2----|-3---3------------|
E|-3---3---3--------|-3---3---3--------|------------------|------------------|
   1 + 2 + 3 + 4 +    1 + 2 + 3 + 4 +    1 + 2 + 3 + 4 +    1 + 2 + 3 + 4 +
Suggest correction
What's this?
You can suggest a correction to this tab. Community and Mods will review your correction and vote to approve or reject it.
comments
print report bad tab
guest
You may want to rate the tab now too:
select rating
Please do not post tabs as comments. Select "correction" instead!