Oops, an error
Loading. Please wait.

Planetary Go Bass

version 3
version 3

Whole song

Interactive

2,769 views 15 this week
no commentswrite comment
1 2 3 4 5
x 6
add to favorites
×
Save as Personal and add changes to this tab that will be seen only by you. Learn more ›
launch autoscroll
font size
0
reset
guitar tuner
backing track
0:00
0:00
Autoscroll
slow
fast
+/-
esc
set tempo
stop
Author
Difficulty
intermediate
Someone asked me to tab this one out my youtube so I'm tabbing it out here.
The other tab was pretty good but not perfect.

So the song arangement of this song is a little weird so I'm just gonna name each part 
what I think is most suitable for it.
Also in my cover i only played some of my parts halfspeed not because I suck but because 
I didn't know at the time lol.

Check out my bass cover of this song!

http://www.youtube.com/watch?v=E1jcOsI-YDA

Also check out my channel for more bass covers!

http://www.youtube.com/user/chrisistheazn


Intro/Verse 1

(Play this part with a little palm mute)

G|-----------------------------------------------------------------------|
D|-----------------------------------------------------------------------|
A|---------------------------------2-2-2-2-2-2-2-2-3-3-3-3-3-3-3-3-------|
E|-3-3-3-3-3-3-3-3-3-3-3-3-3-3-3-3---------------------------------------|

G|-----------------------------------------------------------------------|
D|-----------------------------------------------------------------------|
A|---------------------------------2-2-2-2-2-2-2-2-3-3-3-3-3-3-3-5-------|
E|-3-3-3-3-3-3-3-3-3-3-3-3-3-3-3-3---------------------------------------|

Pre-Chorus 1

G|-----------------------------------------------------------------------|
D|-----------------------------------------------------------------------|
A|-------------------------5---------------------------------------------|
E|-0-------8-------3---------------0-------8------/11--------------------|

(Play the notes on bottom with the drumroll, I only played it halfspeed in my video)

G|-----------------------------------------------------------------------|
D|-10-10-10-10-10-10-10-10-10-10-10-10-10--------------------------------|
A|-----------------------------------------------------------------------|
E|-----------------------------------------------------------------------|

Riff/Chorus 1

G|-----------------------------------4---4---4---4---5---5---------------|
D|---5---5---5-3-5---5---5---5-3-5---------------------------------------|
A|---------------------------------2---2---2---2---3---3-----------------| x2
E|-3---3---3-------3---3---3------------------------------/3---1---------|

Verse 2

G|-----------------------------------4---4---4---4---5---5---------------|
D|---5---5---5-3-5---5---5---5-3-5---------------------------------------|
A|---------------------------------2---2---2---2---3---3-----------------| x4
E|-3---3---3-------3---3---3------------------------------/3---1---------|

Pre-Chorus 2

G|-----------------------------------------------------------------------|
D|-----------------------------------------------------------------------|
A|-------------------------5---------------------------------------------|
E|-0-------8-------3---------------0-------8------/11--------------------|

(Play the notes on bottom with the drumroll, I only played it halfspeed in my video)

G|-----------------------------------------------------------------------|
D|-10-10-10-10-10-10-10-10-10-10-10-10-10--------------------------------|
A|-----------------------------------------------------------------------|
E|-----------------------------------------------------------------------|

Chorus 2

G|-----------------------------------4---4---4---4---5---5---------------|
D|---5---5---5-3-5---5---5---5-3-5---------------------------------------|
A|---------------------------------2---2---2---2---3---3-----------------| x2
E|-3---3---3-------3---3---3------------------------------/3---1---------|

Verse 3

(Play this part with a little palm mute)

G|-----------------------------------------------------------------------|
D|-----------------------------------------------------------------------|
A|---------------------------------2-2-2-2-2-2-2-2-3-3-3-3-3-3-3-3-------|
E|-3-3-3-3-3-3-3-3-3-3-3-3-3-3-3-3---------------------------------------|

G|-----------------------------------------------------------------------|
D|-----------------------------------------------------------------------|
A|---------------------------------2-2-2-2-2-2-2-2-3-3-3-3-3-------------|
E|-3-3-3-3-3-3-3-3-3-3-3-3-3-3-3-3---------------------------------------|

G|-----------------------------------4---4---4---4---5---5---------------|
D|---5---5---5-3-5---5---5---5-3-5---------------------------------------|
A|---------------------------------2---2---2---2---3---3-----------------| x2
E|-3---3---3-------3---3---3------------------------------/3---1---------|

Pre-Chorus 3

G|-----------------------------------------------------------------------|
D|-----------------------------------------------------------------------|
A|-------------------------5---------------------------------------------|
E|-0-------8-------3---------------0-------8------/11--------------------|

(Play the notes on bottom with the drumroll, I only played it halfspeed in my video)

G|-----------------------------------------------------------------------|
D|-10-10-10-10-10-10-10-10-10-10-10-10-10--------------------------------|
A|-----------------------------------------------------------------------|
E|-----------------------------------------------------------------------|

Chorus 3

G|-----------------------------------4---4---4---4---5---5---------------|
D|---5---5---5-3-5---5---5---5-3-5---------------------------------------|
A|---------------------------------2---2---2---2---3---3-----------------| x2
E|-3---3---3-------3---3---3------------------------------/3---1---------|

Bridge

G|-----------------------------------------------------------------------|
D|-----------------------------------------------------------------------|
A|---5---5---5---5---7---7---7---7---3---3---3---3---3---3---3---3-------| x3
E|-----------------------------------------------------------------------|

(Play those 5's at the end with the drumroll, I only played them halfspeed in my video)

G|-----------------------------------------------------------------------|
D|-----------------------------------------------------------------------|
A|---5---5---5---5---7---7---7---7---3-3-3-3-3-3-3-3-555555555-----------|
E|-----------------------------------------------------------------------|

Chorus 4

G|-----------------------------------4---4---4---4---5---5---------------|
D|---5---5---5-3-5---5---5---5-3-5---------------------------------------|
A|---------------------------------2---2---2---2---3---3-----------------| x6
E|-3---3---3-------3---3---3------------------------------/3---1---------|
Suggest correction
comments
print report bad tab
guest
You may want to rate the tab now too:
select rating
Wanna post a correction for this tab? Suggest correction