Oops, an error
Loading. Please wait.

Planetary Go Tab

version 3
version 3

Whole song

Interactive

11,851 views 15 this week
3 commentsread comments
1 2 3 4 5
accurate
x 8
add to favorites
launch autoscroll
font size
0
reset
how to read this tab
guitar tuner
Tab Pro tools
  • play this tab
  • loop segment
  • change instrument
  • show fretboard
  • metronome
×
Best way to learn
"Planetary Go"
Autoscroll
slow
fast
+/-
esc
set tempo
stop
Contributor
Difficulty
novice
Song: Planetary (Go!)
Band: My Chemical Romance
Album: Danger Days: The True Lives of the Fabulous

Pm:- Palm mute
x:- String Mute
~:- Let ring
/:- Slide
p:- Pull Off


Gtr I: Ray Toro: Standard tuning (e,B,G,D,A,E)
Gtr II: Frank Iero: Standard Tuning (e,B,G,D,A,E)


Verse I: (All bass)


Pre-Chorus I:

Gtr II

e:|-------------------------------------|
B:|-8~~--8~~--12~~--10~~--8~~--8~~--8~~-|
G:|-9~~--9~~--12~~--11~~--9~~--9~~--8~~-|
D:|-9~~-10~~--12~~--12~~--9~~-10~~--8~~-|
A:|-------------------------------------|
E:|-------------------------------------|

Both Gtr's

e:|----------------------|
B:|----------------------|
G:|----------------------|
D:|----------------------|
A:|-1010101010101010////-|
E:|--8-8-8-8-8-8-8-8////-|


Chorus:

Gtr I (x2)

e:|----------------------------------------------------------------------|
B:|----------------------------------------------------------------------|
G:|----12----12----12---------12----12----12---------12----12----12------|
D:|-------------------10p9-------------------10p9-------------------10p9-|
A:|-10----10----10---------10----10----10---------10----10----10---------|
E:|----------------------------------------------------------------------|

e:|------------------|
B:|------------------|
G:|----12----12------|
D:|------------------|
A:|-10----10---------|
E:|-------------8--6-|

Gtr II (x2)

e:|----------------------------------------------------------------------|
B:|----------------------------------------------------------------------|
G:|----12----12----12---------12----12----12---------12----12----12------|
D:|-----x-----x-----x-10/9-----x-----x-----x-10/9-----x-----x-----x-10/9-|
A:|-10-10-10-10-10-10--x-x-10-10-10-10-10-10--x-x-10-10-10-10-10-10--x-x-|
E:|--------------------8/7--------------------8/7--------------------8/7-|

e:|-------------------|
B:|-------------------|
G:|----12----12-------|
D:|-----x-----x-------|
A:|-10-10-10-10-10--8-|
E:|--------------8--6-|


Verse II: 

Both Gtr's

e:|-------|
B:|-------|
G:|-------| (x2)
D:|-------|
A:|-10--8-|
E:|--8--6-|

e:|-------------------------------------------------------|
B:|-------------------------------------------------------|
G:|-12--12--12-15/16-12--12--12-10/11/12-12--12--12-15/16-|
D:|--x---x---x--x--x--x---x---x--x--x--x--x---x---x--x--x-|
A:|-10--10--10-13/14-10--10--10--8/-9/10-10--10--10-13/14-|
E:|-------------------------------------------------------|

e:|--------------|
B:|--------------|
G:|-12--12-------|
D:|--x---x-------|
A:|-10--10-10--8-|
E:|---------8--6-|

e:|-------------------------------------------------------|
B:|-------------------------------------------------------|
G:|-12--12--12-15/16-12--12--12-10/11/12-12--12--12-15/16-|
D:|--x---x---x--x--x--x---x---x--x--x--x--x---x---x--x--x-|
A:|-10--10--10-13/14-10--10--10--8/-9/10-10--10--10-13/14-|
E:|-------------------------------------------------------|

e:|--------------|
B:|--------------|
G:|-12--12-------|
D:|--x---x-------|
A:|-10--10-10--8-|
E:|---------8--6-|


Pre-Chorus II:

Gtr I

e:|-----------------------------------|
B:|-----------------------------------|
G:|-----------------------------------|
D:|-----------------------------------|
A:|-2~~--3~~-------5~~--2~~--3~~--6~~-|
E:|-----------3~~---------------------|

Gtr II

e:|-------------------------------------|
B:|-8~~--8~~--12~~--10~~--8~~--8~~--8~~-|
G:|-9~~--9~~--12~~--11~~--9~~--9~~--8~~-|
D:|-9~~-10~~--12~~--12~~--9~~-10~~--8~~-|
A:|-------------------------------------|
E:|-------------------------------------|

Both Gtr's

e:|----------------------|
B:|----------------------|
G:|----------------------|
D:|----------------------|
A:|-1010101010101010////-|
E:|--8-8-8-8-8-8-8-8////-|


Repeat Chorus

Verse III:

The beginning is just bass, then;

Both Gtr's

e:|-------------------------------------------------------|
B:|-------------------------------------------------------|
G:|-12--12--12-15/16-12--12--12-10/11/12-12--12--12-15/16-|
D:|--x---x---x--x--x--x---x---x--x--x--x--x---x---x--x--x-|
A:|-10--10--10-13/14-10--10--10--8/-9/10-10--10--10-13/14-|
E:|-------------------------------------------------------|

e:|--------------|
B:|--------------|
G:|-12--12-------|
D:|--x---x-------|
A:|-10--10-10--8-|
E:|---------8--6-|

e:|-------------------------------------------------------|
B:|-------------------------------------------------------|
G:|-12--12--12-15/16-12--12--12-10/11/12-12--12--12-15/16-|
D:|--x---x---x--x--x--x---x---x--x--x--x--x---x---x--x--x-|
A:|-10--10--10-13/14-10--10--10--8/-9/10-10--10--10-13/14-|
E:|-------------------------------------------------------|

e:|--------------|
B:|--------------|
G:|-12--12-------|
D:|--x---x-------|
A:|-10--10-10--8-|
E:|---------8--6-|


Repeat Pre-Chorus II

Repeat Chorus

Bridge: (Listen carefully for timing.)

Gtr I

e:|-12-|
B:|-13-|
G:|-12-|
D:|----|
A:|----|
E:|----|

Gtr II

e:|-------------------------|
B:|-------------------------|
G:|-7~~~~--9~~~~--5~~~~~~~--|
D:|-x------x------x---------|
A:|-5~~~~--7~~~~--3~~~~~~~~-|
E:|-------------------------|


End bridge with:

Gtr I

e:|-12121212121212121212121212121212/141414141414141414-|
B:|-13131313131313131313131313131313/151515151515151515-|
G:|-12121212121212121212121212121212/141414141414141414-|
D:|-----------------------------------------------------|
A:|-----------------------------------------------------|
E:|-----------------------------------------------------|

Gtr II

e:|-----------------------------------------------------|
B:|-----------------------------------------------------|
G:|-12121212121212121212121212121212/141414141414141414-|
D:|--x-x-x-x-x-x-x-x-x-x-x-x-x-x-x-x--x-x-x-x-x-x-x-x-x-|
A:|-10101010101010101010101010101010/121212121212121212-|
E:|-----------------------------------------------------|


Repeat Chorus until end of song.
comments
print report bad tab
3 comments total.
0 reply
HelloZan wrote on February 18 2011, 10:29 am

This is AWESOME!!
What a cool song.

0 reply
FishFold wrote on February 18 2011, 07:15 pm

This is how I play it too. Very accurate. THis is how they play it live. :D

0 reply
Tamrez wrote on October 27 2014, 12:19 pm

e:|------------------|
B:|------------------|
G:|----12----12------|
D:|-------------10-8-|
A:|-10----10----10-8-|
E:|-------------8--6-|

not necessary but sound a little better

I want to post or [tab]
guest
You may want to rate the tab now too:
select rating
Please do not post tabs as comments. Select "correction" instead!