Oops, an error
Loading. Please wait.

Planetary Go Tab

version 4
version 4

Whole song

Interactive

3,902 views 3 this week
no commentswrite comment
1 2 3 4 5
accurate
x 4
add to favorites
launch autoscroll
font size
0
reset
how to read this tab
guitar tuner
Tab Pro tools
  • play this tab
  • loop segment
  • change instrument
  • show fretboard
  • metronome
×
Best way to learn
"Planetary Go"
Autoscroll
slow
fast
+/-
esc
set tempo
stop
Contributor
Difficulty
intermediate
Song: Planetary (GO!)
Artist: My Chemical Romance <333
Tabbed by: CriminalCynical

Any ideas for the tab can be e-mailed to me at criminalcynical@hotmail.com :)
I will post a video tutorial on my channel for this tab soon:
http://www.youtube.com/user/CriminalCynical

There might be something outside your window...
e|----------------------------------|
B|----------------------------------|
G|----------------------------------|
D|----------------------------------|
A|-----------------2222222233333333-|
E|-3333333333333333-----------------|x2


Power/bar chords

         Em                   C
If my velocity starts to make you sweat
          G         D
Then just don't let go
             Em                 C
And if their heaven ain't got a vacancy
            Eb                          C
Then we just, then we just, then we just, then we just
Get up and go!

Interlude thing

e|----------------|----------------|----------------|
B|----------------|----------------|----------------|
G|----------------|----------------|----------------|
D|---5--5--5--5---|---5--5--5--5---|---5--5--5--5---|
A|-------------3-2|-------------3-2|-------------3-2|
E|-3--3--3--3-----|-3--3--3--3-----|-3--3--3--3-----|

e|------------|
B|------------|
G|--------5-3-|
D|---5--5-5-3-|
A|--------3-1-|
E|-3--3-------|

X2

Verse 1
e|-------------------------------------------------|
B|-------------------------------------------------|
G|----------------------------4--4--4--4--5--5-5-3-|
D|---5--5--5--5--5--5--5--5--------------------5-3-|
A|--------------------------2--2--2--2--3--3---3-1-|
E|-3--3--3--3--3--3--3--3--------------------------|

X2

You can either continue with that for the whole verse, or you can do this: (the video 
will help with timing)
 The 1010 is tenth fret twice
e|------------------------------------------------|
B|------------------------------------------------|
G|------------------------------------------------|
D|--------------------------------------10-8------|
A|-1010-1313-14-1010-88-9--1010-1313-14-10-8------|
E|--------------------------------------8--6------|
X2

         Em                   C
If my velocity starts to make you sweat
          G         D
Then just don't let go
             Em                 C
And if their heaven ain't got a vacancy
            Eb                          C
Then we just, then we just, then we just, then we just
Get up and go!

Chorus
e|-------------------------|-------------------------|
B|-------------------------|-------------------------|
G|-------------------------|-------------------------|
D|---12--12--12--12--------|---12--12--12--12--------|
A|-----------------10-11---|-----------------10-11---|
E|-10--10--10--10----------|-10--10--10--10----------|

e|-------------------------|----------------|
B|-------------------------|----------------|
G|-------------------------|----------------|
D|---12--12--12--12--------|---12--12--10-8-|
A|-----------------10-11---|-----------10-8-|
E|-10--10--10--10----------|-10--10----8--6-|  X2

Verse 2: You’re unbelievable, ah, so unbelievable...
e|----------------------------------|
B|----------------------------------|
G|----------------------------------|
D|----------------------------------|
A|-----------------2222222233333333-|
E|-3333333333333333-----------------|

e|----------------------------------|
B|----------------------------------|
G|------------------------------5-3-|
D|------------------------------5-3-|
A|-----------------222222223333-3-1-|
E|-3333333333333333-----------------|

They sell presentable, young and so ingestible...
e|------------------------------------------------|
B|------------------------------------------------|
G|------------------------------------------------|
D|--------------------------------------10-8------|
A|-1010-1313-14-1010-88-9--1010-1313-14-10-8------|
E|--------------------------------------8--6------|  x2
Or
e|---------------------------------------------------|
B|---------------------------------------------------|
G|----------------------------4--4--4--4--5--5-5-3---|
D|---5--5--5--5--5--5--5--5--------------------5-3---|
A|--------------------------2--2--2--2--3--3---3-1---|
E|-3--3--3--3--3--3--3--3----------------------------|  x2

         Em                   C
If my velocity starts to make you sweat
          G         D
Then just don't let go
             Em                 C
And if their heaven ain't got a vacancy
            Eb                          C
Then we just, then we just, then we just, then we just
Get up and go!

Chorus
e|-------------------------|-------------------------|
B|-------------------------|-------------------------|
G|-------------------------|-------------------------|
D|---12--12--12--12--------|---12--12--12--12--------|
A|-----------------10-11---|-----------------10-11---|
E|-10--10--10--10----------|-10--10--10--10----------|

e|-------------------------|----------------|
B|-------------------------|----------------|
G|-------------------------|----------------|
D|---12--12--12--12--------|---12--12--10-8-|
A|-----------------10-11---|-----------10-8-|
E|-10--10--10--10----------|-10--10----8--6-|  X2

Power/Bar chords
Bridge thing
D                 Em               C
You keep eternity, give us the radio
D                Em
Deploy the battery,
                                     C
We're taking back control
D                     Em                C
Engage the energy, light up the effigy
D                    Em
No chance to take it slow
                                 C
By now I'm sure you know

Know, know know know
                 G
Get up and go!

Chorus
e|-------------------------|-------------------------|
B|-------------------------|-------------------------|
G|-------------------------|-------------------------|
D|---12--12--12--12--------|---12--12--12--12--------|
A|-----------------10-11---|-----------------10-11---|
E|-10--10--10--10----------|-10--10--10--10----------|

e|-------------------------|----------------|
B|-------------------------|----------------|
G|-------------------------|----------------|
D|---12--12--12--12--------|---12--12--10-8-|
A|-----------------10-11---|-----------10-8-|
E|-10--10--10--10----------|-10--10----8--6-|  X2
 You can just do this for the rest of the song or add in:

e|----------------|----------------|----------------|
B|----------------|----------------|----------------|
G|----------------|----------------|----------------|
D|---5--5--5--5---|---5--5--5--5---|---5--5--5--5---|
A|-------------3-2|-------------3-2|-------------3-2|
E|-3--3--3--3-----|-3--3--3--3-----|-3--3--3--3-----|

e|------------|
B|------------|
G|--------5-3-|
D|---5--5-5-3-|
A|--------3-1-|
E|-3--3-------|

And
e|------------------------------------------------|
B|------------------------------------------------|
G|------------------------------------------------|
D|--------------------------------------10-8------|
A|-1010-1313-14-1010-88-9--1010-1313-14-10-8------|
E|--------------------------------------8--6------|
X2

End on a Bb bar chord
Which can be -8- or it can be -3-|
             -8-              -3-|
             -6-              -1-|
comments
print report bad tab
I want to post or [tab]
guest
You may want to rate the tab now too:
select rating
Please do not post tabs as comments. Select "correction" instead!