Oops, an error
Loading. Please wait.

Romance Tab

version 2
version 2

Whole song

Interactive

7,812 views 12 this week
no commentswrite comment
1 2 3 4 5
x 11
add to favorites
launch autoscroll
font size
0
reset
how to read this tab
guitar tuner
Autoscroll
slow
fast
+/-
esc
set tempo
stop
Help us to improve Ultimate-Guitar.com Take our survey!
×
Author
                          ROMANCE - MY CHEMICAL ROMANCE

Tabbed by: Sally
Email: woodle1994@hotmail.com

Tuning: standard

e|---7----------7-----------7--------5--------3--------3--------2------------|
B|------0-----------0----------0--------0--------0--------0--------0---------|
G|----------0-----------0---------0--------0--------0--------0--------0------|
D|---------------------------------------------------------------------------|
A|---------------------------------------------------------------------------|
E|---0-----------------------0--------------------------0--------------------|

e|---0-------0--------3--------7--------12--------12--------12---------------|
B|-----0--------0--------0--------0---------0---------0---------0------------|
G|--------0--------0--------0--------0---------0---------0---------0---------|
D|---------------------------------------------------------------------------|
A|---------------------------------------------------------------------------|
E|-----------0---------------------------0-----------------------------------|

e|---12--------10--------8--------8--------7--------5--------5---------------|
B|-------0---------0--------0--------5--------5--------5--------5------------|
G|----------0---------0--------0--------5--------5--------5--------5---------|
D|---------------------------------------------------------------------------|
A|--------------------------------0--------------------------0---------------|
E|---0-----------------------------------------------------------------------|

e|---7--------8--------7--------8--------7--------11--------8--------7-------|
B|------5--------5--------7--------7--------7---------7--------7--------7----|
G|---------5--------5--------8--------8--------8---------8--------8-------8--|
D|---------------------------------------------------------------------------|
A|---------------------------------------------------------------------------|
E|---------------------7---------------------------7-------------------------|

e|---7--------5--------3--------3--------2--------0--------2------2----------|
B|------0--------0--------0--------0--------0--------0--------0------0-------|
G|---------0--------0--------0--------0--------0--------0--------2------2----|
D|---------------------------------------------------------------------------|
A|---------------------------------------------------------2-----------------|
E|---0--------------------------0--------------------------------------------|

e|---2--------2--------3--------2--------0--------0--------0-----------0-----|
B|------0--------0--------0--------0--------0--------0--------0--------0-----|
G|---------2--------2--------2--------2--------0--------0--------0-----0-----|
D|---------------------------------------2-----------------------------2-----|
A|------------2-----------------------------------2--------------------2-----|
E|---------------------------------------------------------3-----------0-----|

e|---7----------7-----------7--------5--------3--------3--------2------------|
B|------0-----------0----------0--------0--------0--------0--------0---------|
G|----------0-----------0---------0--------0--------0--------0--------0------|
D|---------------------------------------------------------------------------|
A|---------------------------------------------------------------------------|
E|---0-----------------------0--------------------------0--------------------|

e|---0-------0--------3--------7--------12--------12--------12---------------|
B|-----0--------0--------0--------0---------0---------0---------0------------|
G|--------0--------0--------0--------0---------0---------0---------0---------|
D|---------------------------------------------------------------------------|
A|---------------------------------------------------------------------------|
E|-----------0---------------------------0-----------------------------------|

e|---12--------10--------8--------8--------7--------5--------5---------------|
B|-------0---------0--------0--------5--------5--------5--------5------------|
G|----------0---------0--------0--------5--------5--------5--------5---------|
D|---------------------------------------------------------------------------|
A|--------------------------------0--------------------------0---------------|
E|---0-----------------------------------------------------------------------|

e|---7--------8--------7--------8--------7--------11--------8--------7-------|
B|------5--------5--------7--------7--------7---------7--------7--------7----|
G|---------5--------5--------8--------8--------8---------8--------8-------8--|
D|---------------------------------------------------------------------------|
A|---------------------------------------------------------------------------|
E|---------------------7---------------------------7-------------------------|

e|---7--------5--------3--------3--------2--------0--------2------2----------|
B|------0--------0--------0--------0--------0--------0--------0------0-------|
G|---------0--------0--------0--------0--------0--------0--------2------2----|
D|---------------------------------------------------------------------------|
A|---------------------------------------------------------2-----------------|
E|---0--------------------------0--------------------------------------------|

e|---2--------2--------3--------2--------0--------0--------0-----------0-----|
B|------0--------0--------0--------0--------0--------0--------0--------0-----|
G|---------2--------2--------2--------2--------0--------0--------0-----0-----|
D|---------------------------------------2-----------------------------2-----|
A|------------2-----------------------------------2--------------------2-----|
E|---------------------------------------------------------3-----------0-----|


| /  slide up
| \  slide down
| h  hammer-on
| p  pull-off
| ~  vibrato
| +  harmonic
| x  Mute note
===============================================================================
Suggest correction
comments
print report bad tab
guest
You may want to rate the tab now too:
select rating
Wanna post a correction for this tab? Suggest correction