Oops, an error
Loading. Please wait.

Save Yourself Ill Hold Them Back Bass Tab

version 1
version 1

Whole song

Interactive

4,506 views 21 this week
2 commentsread comments
1 2 3 4 5
x 10
add to favorites
launch autoscroll
font size
0
reset
guitar tuner
Autoscroll
slow
fast
+/-
esc
set tempo
stop
Help us to improve Ultimate-Guitar.com Take our survey!
×
Author
Difficulty
novice
Tabbed By : Mykee Way
e-mail: mikaelrutter@gmail.com


Intro: Guitar until 0:26

G|-------------------------------------|
D|-------------------------------------|
A|-77777777-77777----------------------|
E|---------------765-33333333-88885555-|	x4

Verse 1 0:55

G|-------------------------------------|
D|-------------------------------------|
A|-77777777-77777----------------------|
E|---------------765-33333333-88885555-|

G|-------------------------------------|
D|-------------------------------------|
A|-77777777-77777----------------------|
E|---------------765-33333333-8888-----|

G|-------------------------------------|
D|-------------------------------------|
A|-77777777-77777----------------------|
E|---------------765-33333333-88885555-|

G|-------------------------------------|
D|-------------------------------------|
A|-77777777-77777-----------------2----|
E|---------------765--0---2---3--------|

Chorus 1:22

G|--------------------------------------|
D|--------------------------------------|
A|-33333333-55555555-66666666-77775555--|
E|--------------------------------------|

G|-------------------------------------------------------|
D|-------------------------------------------------------|
A|-33333333-55555555-77777777-77777----------------------|
E|---------------------------------765-33333333-88885555-|

G|-------------------------------------|
D|-------------------------------------|
A|-77777777-77777----------------------|
E|---------------765-33333333-88885555-|

Verse 2 1:47

G|-------------------------------------|
D|-------------------------------------|
A|-77777777-77777----------------------|
E|---------------765-33333333-88885555-| x3

G|-------------------------------------|
D|-------------------------------------|
A|-77777777-77777-----------------2----|
E|---------------765--0---2---3--------|

Chorus 2:15

G|--------------------------------------|
D|--------------------------------------|
A|-33333333-55555555-66666666-77775555--|
E|--------------------------------------|

G|--------------------------------------|
D|--------------------------------------|
A|-33333333-55555555-77777777-77777777--|
E|--------------------------------------|

G|--------------------------------------|
D|--------------------------------------|
A|-33333333-55555555-66666666-77775555--|
E|--------------------------------------|

G|-------------------|
D|-------------------|
A|-33333333-55555555-|
E|-------------------|

Bridge 2:39

G|-------------------------------------|
D|-------------------------------------|
A|-77777777-77777----------------------|
E|---------------765-33333333-88885555-|

G|-------------------------------------|
D|-------------------------------------|
A|-77777777-77777----------------------|
E|---------------765-33333333-8888-----|

(Guitar Solo)

G|-------------------------------------|
D|-------------------------------------|
A|-77777777-77777----------------------|
E|---------------765-33333333-88885555-|

G|-------------------------------------|
D|-------------------------------------|
A|-77777777-77777----------------------|
E|---------------765-33333333-8--------|

Chorus 3:07

G|--------------------------------------|
D|--------------------------------------|
A|-33333333-55555555-66666666-77775555--|
E|--------------------------------------|

G|--------------------------------------|
D|--------------------------------------|
A|-33333333-55555555-77777777-777777-2--|
E|--------------------------------------|

G|--------------------------------------|
D|--------------------------------------|
A|-33333333-55555555-66666666-77775555--|
E|--------------------------------------|

G|-------------------|
D|-------------------|
A|-33333333-55555555-|
E|-------------------|

Outro 3:32

G|-------------------------------------|
D|-------------------------------------|
A|-77777777-77777----------------------|
E|---------------765-33333333-88885555-| x2

G|-----|
D|-----|
A|-7\--|
E|-----|

===============================================================================

Suggest correction
comments
print report bad tab
2 comments total.
0 reply
xxzacky26xx 1,246 May 28, 2011 02:54 PM

It's a very good one! but you don't deserve the 5 stars... but you neither deserve the 4 stars... so... I just can say Congratulations!;)

0 reply
Mykee Way 99 May 28, 2011 03:39 PM

haha thank you? its a very simple song and i threw it together in like two hours, so maybe your right. i just wanted to get the notes right, yall can figure out the rhythm

guest
You may want to rate the tab now too:
select rating
Wanna post a correction for this tab? Suggest correction