Oops, an error
Loading. Please wait.

Scarecrow Tab

version 1
version 1

Whole song

Interactive

26,737 views 51 this week
3 commentsread comments
1 2 3 4 5
x 18
add to favorites
launch autoscroll
font size
0
reset
how to read this tab
guitar tuner
Autoscroll
slow
fast
+/-
esc
set tempo
stop
Help us to improve Ultimate-Guitar.com Take our survey!
×
Author
Difficulty
intermediate
Intro

e|-----------------|
B|-7-7-7-7-7-7-7-7-|
G|-7-7-7-7-7-7-7-7-|
D|-7-7-7-7-7-7-7-7-|
A|-5-5-5-5-5-5-5-5-|
E|-----------------|

e|-----------------3-3-3-3--------------------------3-3-3-3----------|
B|-7-7-7-777-7-7-7-3-3-3-3--7-7-7-787-7-7-7-7-7-7-7-3-3-3-3--7-7-7-7-|
G|-7-7-7-777-7-7-7-4-4-3-3--7-7-7-777-7-7-7-7-7-7-7-4-4-3-3--7-7-7-7-|
D|-7-7-7-777-7-7-7-5-5-5-5--7-7-7-777-7-7-7-7-7-7-7-5-5-5-5--7-7-7-7-|
A|-5-5-5-555-5-5-5-5-5-5-5--5-5-5-555-5-5-5-5-5-5-5-5-5-5-5--5-5-5-5-|
E|-----------------3-3-3-3--------------------------3-3-3-3----------|

Verse

e|-------------------------------------|
B|-------------------------------------|
G|-7-7-7-7-6-6-6-6-4-4-4-4-7-7-6-67----|  x2
D|-7-7-7-7-7-7-7-7-4-4-4-4-7-7-7-77----|
A|-5-5-5-5-4-4-4-4-2-2-2-2-7-7-7-77----|
E|-------------------------5-5-5-55----|

e|------------------------------------|
B|------------------------------------|
G|-7-7-9-11--7-7-9-11-7-7-------------|
D|-x-x-x-x---x-x-x-x--x-x-9-9-7-7-----|
A|-5-5-7-9---5-5-7-9--5-5-x-x-x-x-----|- til the chorus
E|------------------------7-7-5-5-----|

Chorus

e|-----------------3-3-3-3--------------------------3-3-3-3----------|
B|-7-7-7-777-7-7-7-3-3-3-3--7-7-7-787-7-7-7-7-7-7-7-3-3-3-3--7-7-7-7-|
G|-7-7-7-777-7-7-7-4-4-3-3--7-7-7-777-7-7-7-7-7-7-7-4-4-3-3--7-7-7-7-|
D|-7-7-7-777-7-7-7-5-5-5-5--7-7-7-777-7-7-7-7-7-7-7-5-5-5-5--7-7-7-7-|
A|-5-5-5-555-5-5-5-5-5-5-5--5-5-5-555-5-5-5-5-5-5-5-5-5-5-5--5-5-5-5-|
E|-----------------3-3-3-3--------------------------3-3-3-3----------|

Verse

e|-----------------------------------|
B|-----------------------------------|
G|-7-7-9-11--7-7-9-11-7-7------------|
D|-x-x-x-x---x-x-x-x--x-x-9-9-7-7----|
A|-5-5-7-9---5-5-7-9--5-5-x-x-x-x----|
E|------------------------7-7-5-5----|


e|--------------------------------------------------|
B|--------------------------------------------------|
G|-44444/6666/7777/9999-11111111/12121212/14141414--|
D|-xxxxx/xxxx/xxxx/xxxx/x-x-x-x-/xxxxxxxx/xxxxxxxx--|
A|-22222/4444/5555/7777/9-9-9-9-/10101010/12121212--|
E|--------------------------------------------------|

Chorus

e|-----------------3-3-3-3--------------------------3-3-3-3----------|
B|-7-7-7-777-7-7-7-3-3-3-3--7-7-7-787-7-7-7-7-7-7-7-3-3-3-3--7-7-7-7-|
G|-7-7-7-777-7-7-7-4-4-3-3--7-7-7-777-7-7-7-7-7-7-7-4-4-3-3--7-7-7-7-|
D|-7-7-7-777-7-7-7-5-5-5-5--7-7-7-777-7-7-7-7-7-7-7-5-5-5-5--7-7-7-7-|
A|-5-5-5-555-5-5-5-5-5-5-5--5-5-5-555-5-5-5-5-5-5-5-5-5-5-5--5-5-5-5-|
E|-----------------3-3-3-3--------------------------3-3-3-3----------|

then...

e|-2-2-3-2-2-3-2-2-3-2----| ->til the solo
B|--3-----3-----3---------|
G|-2----------------------|
D|-0----------------------|
A|------------------------|
E|------------------------|

e|---------------------|
B|---------------------|
G|-7-7-7-7-7-7-7-7-----| *=PM
D|-7-7-7-7-7-7-7-7-----|
A|-5-5-5-5-5-5-5-5-----|
E|---------------------|
   * * * * * * * *

Solo

e|-----------------------------------------|
B|-15-14-12-10-12--------------------------|
G|----------------11~-------14/11~---------|
D|----------------------15~----------------|
A|-----------------------------------------|
E|-----------------------------------------|

e|-------------------------------|
B|-------------------------------|
G|---------14b16b14b14b16b14b16--|
D|-12~-12~-----------------------|
A|-------------------------------|
E|-------------------------------|

e|-----------------------------------------------------------------------------------|
B|----------------------------------------13-15~--13-12-10---------------------------|
G|---------------------14b16b14b16b14b16-------------------11-11-12-14---------------|
D|-12~-12~-12~-12~-12~-------------------------------------------------12-14-14b-----|
A|-----------------------------------------------------------------------------------|
E|-----------------------------------------------------------------------------------|

e|---------------------------------|
B|---------------------------------|
G|--------14b16b14b16b14b16--------|
D|-12~-12~-------------------------|
A|---------------------------------|
E|---------------------------------|

e|------------------------------------------------------------17b-15-14-17~----|
B|---------------------------------------13-15~-15-17b-17-15-------------------|
G|-------------------14b16b14b16b14b14-----------------------------------------|
D|-12~-12~-12~-12~-12~---------------------------------------------------------|
A|-----------------------------------------------------------------------------|
E|-----------------------------------------------------------------------------|

Chorus til the end

e|-----------------3-3-3-3--------------------------3-3-3-3----------|
B|-7-7-7-777-7-7-7-3-3-3-3--7-7-7-787-7-7-7-7-7-7-7-3-3-3-3--7-7-7-7-|
G|-7-7-7-777-7-7-7-4-4-3-3--7-7-7-777-7-7-7-7-7-7-7-4-4-3-3--7-7-7-7-|
D|-7-7-7-777-7-7-7-5-5-5-5--7-7-7-777-7-7-7-7-7-7-7-5-5-5-5--7-7-7-7-|
A|-5-5-5-555-5-5-5-5-5-5-5--5-5-5-555-5-5-5-5-5-5-5-5-5-5-5--5-5-5-5-|
E|-----------------3-3-3-3--------------------------3-3-3-3----------|

2nd guitar

e|-14-15-14-15-14----14-15-14-15-14-17----|
B|----------------15----------------------|
G|----------------------------------------|
D|----------------------------------------|
A|----------------------------------------|
E|----------------------------------------|
Suggest correction
comments
print report bad tab
3 comments total.
0 reply
mcflytothefutur 10 Dec 07, 2010 11:56 AM

the tab is 100% correct, thanks!!!
xoxoleonie

0 reply
pakopako 788 Dec 07, 2010 01:41 PM

Oooooooooooooooooh thanks a lot :]

0 reply
chumisfum6789 145 Jul 11, 2016 01:16 AM

This tab is perfect!

guest
You may want to rate the tab now too:
select rating
Wanna post a correction for this tab? Suggest correction